» » »

Empty Promises Bass tabs (ver.1)

Artists:  A B C D E F G H I J K L M N O P Q R S T U V W X Y Z # 

Empty Promises Bass tabs (ver.1)

Hatebreed
Rating:
0/5 (0 votes)

Hard to play? Try these video lessons and learn fast.
                Drop D tuning: G,D,A,D

Note: I'm not sure exactly how they tune, but everything is played on just 
the low D string, so it doesn't matter.  If you know exactly how they tune, 


Intro:

G|--------------------| x3
D|--------------------|
A|--------------------|
D|--0-0-0-3--0-0-0-1--|

G|-------| x1
D|-------|
A|-------|
D|--1-0--|

G|---------| x1
D|---------|
A|---------|
D|--0h3-3--|


Verse:

G|---------------------------|
D|---------------------------|
A|---------------------------|
D|--1-0-0-1-0-0-0h3-3-3-3-3--|
                                
G|---------------------------|
D|---------------------------|
A|---------------------------|
D|--1-0-0-1-0-0-0h3-3-4-4-4--|






Bridge:

G|------| x4
D|------|
A|------|
D|--0*--|

G|---------| x1 
D|---------|
A|---------|
D|--4-3-4--|

G|---------------| x16
D|---------------|
A|---------------|
D|--0-3-5-4-3-4--|
            
Hard to play? Try these video lessons and learn fast. | Correct




comments powered by Disqus
↑ Back to top | Tablatures and chords are parodies/interpretations of the original songs. You may use it for private study, scholarship, research or language learning purposes only