» » »

Hatebreed, Destroy Everything Bass tabs (ver.2)

Artists:  A B C D E F G H I J K L M N O P Q R S T U V W X Y Z # 

Destroy Everything Bass tabs (ver.2)

Hatebreed Tabs
 Rating:
4/5 (4 votes)
Destroy Everything lessons Tabs too difficult? Try these video lessons and learn fast
                Hatebreed - Destroy everything
Album     - Supremacy

Tuning: C,G,C,F


Intro and Verse:



F|----|-----------------------|------------------------|
C|----|-----------------------|------------------------|
G|----|-----------------------|--------5------5--5-5-5-|
C|-0~~|-0-0-0-0~-00-3-0-6-0-5-|-0-0-0-0--0-0-0--0------|



F|------------------------------------|
C|------------------------------------|
G|------------------------------------|
C|-4-4-3-1--3-3-1-0--4-4-4-3--1-1-1-0-|



F|--------------------------------------------------|
C|--------------------------------------------------|
G|-------------------------------4-3---------7-10-9-|
C|-0-0-0-0~-0-0-0-0-0-6~-0-0-0-0-----0-0-0-0--------|

End:

F|-------------------------------------------------|
C|-------------------------------------------------|
G|-------------------------------------------------|
C|-0-0-0-0~-0-0-0-0-0-0~-0-0-0-0-0-0~-00-3-0-6-0-5-|



Hatebreed rulez!
            
Submit corrections

comments powered by Disqus
↑ Back to top | Hatebreed Bass for Destroy Everything. Lyrics for acoustic guitar and electric guitar. Tablatures and chords are parodies/interpretations of the original songs. You may use it for private study, scholarship, research or language learning purposes only