» » »

Defeatist Tabs (ver.1)

Artists:  A B C D E F G H I J K L M N O P Q R S T U V W X Y Z # 

Defeatist Tabs (ver.1)

Hatebreed
Rating:
4/5 (9 votes)

Hard to play? Try these video lessons and learn fast.
                ----------------------------------------------------------------------------
                             SONG NAME - Band Name
----------------------------------------------------------------------------

Tuning: drop c

e|-----------------------------------------------|-------|
B|-------------------------------------------(x5)|-------|
G|-----------------------------------------------|-------|
D|-2--------2--------2--------2--------3-6-5-3---|-2~~-0-|  PICK Scr*pE \\\\
A|-2-0(x12)-2-0(x12)-2-0(x12)-2-0(x6)--3-6-5-3---|-2~~-0-|
E|-2-0------2-0------2-0------2-0------3-6-5-3---|-2~~-0-|
     .        .        .        .
e|-------------------------------------------------|
B|-------------------------------------------------|
G|-------------------------------------------------|
D|-5-3-2----------3----------5----------6----------| play 4x
A|-5-3---00000000---00000000---00000000---00000000-|
E|-5-3---00000000---00000000---00000000---00000000-|
         ........   ........   ........   ........
e|----------------------|
B|----------------------|
G|--------------S-T-O-P-|
D|-5-3-2~~-0~~--0-0-0-0-|  where it says stop then fully mute the strings
A|-5-3-2~~-0~~--0-0-0-0-|  after each chord! (listen to song)!
E|-5-3-2~~-0~~--0-0-0-0-|

e|--------------------------|------------------|
B|----------------------(x3)|------------------|
G|--------------------------|------------------|
D|-5-3-2----0---0---0-------|-5-3-2----0---0~~~|   PLAY LINE 2x
A|-5-3-2-00-0-0-0-0-0-00----|-5-3-2-00-0-0-0~~~|
E|-5-3-2-00-0-0-0-0-0-00----|-5-3-2-00-0-0-0~~~|
         ..   .   .   ..            ..   .
e|-----------|
B|-----------|
G|-----------|
D|-2~~~-0~~~-|
A|-2~~~-0~~~-|
E|-2~~~-0~~~-|

e|-------------------------------------------------|
B|-------------------------------------------------|
G|-------------------------------------------------|
D|-5-3-2----------3----------5----------6----------| play 4x
A|-5-3---00000000---00000000---00000000---00000000-|
E|-5-3---00000000---00000000---00000000---00000000-|
         ........   ........   ........   ........

e|---------------|
B|---------------|
G|---------------|
D|-5-3-2~~~-0~~~-|  PICK Scr*pE \ \ \ \
A|-5-3-2~~~-0~~~-|  
E|-5-3-2~~~-0~~~-|

e|---------------------------------------------|      |------|
B|---------------------------------------------|      |------| 
G|---------------------------------------------|      |------|
D|-5-3-2----------2----------2----------2----2-|  X3  |--5-3-|
A|-5-3-2-00-00-00-2-00-00-00-2-00-00-00-2-00-2-|      |--5-3-|
E|-5-3-2-00-00-00-2-00-00-00-2-00-00-00-2-00-2-|      |--5-3-|
         .. .. ..   .. .. ..   .. .. ..   ..
e|-----------------------------------------------|           |--------|
B|-----------------------------------------------|           |--------|
G|-----------------------------------------------|           |--------|  
D|-2----------3----------5----------6----3-5-3-2-|  play 4x  |-0~~~~~~|
A|---00-00-00---00-00-00---00-00-00---0--3-5-3-2-|           |-0~~~~~~|
E|---00-00-00---00-00-00---00-00-00---0--3-5-3-2-|           |-0~~~~~~|
     .. .. ..   .. .. ..   .. .. ..   .

THE END ... maybe wrong but i know that it isnt totally ... 
            
Hard to play? Try these video lessons and learn fast. | Correct




comments powered by Disqus
↑ Back to top | Tablatures and chords are parodies/interpretations of the original songs. You may use it for private study, scholarship, research or language learning purposes only