» » »

Hatebreed, Defeatist Bass tabs (ver.1)

Artists:  A B C D E F G H I J K L M N O P Q R S T U V W X Y Z # 

Defeatist Bass tabs (ver.1)

Hatebreed Tabs
Rating:
4/5 (1 vote)
Defeatist lessons Tabs too difficult? Try these video lessons and learn fast
                Hatebreed - Defeatist
Album     - Supremacy

Tuning: C,G,C,F

Intro and Verse:

                                                  Ending:

F|----------------------------------------------|------------|
C|----------------------------------------------|------------|
G|----------------------------------------------|------------|
C|-1-0000000-1-0000000-1-0000000-1-0000-1-4-3-1-|-4-3-1~---0-|


Chorus:
                                               Ending:

F|--------------------------------------|-------------------|
C|-----2-------3-------5-------6--------|-------------------|
G|--------------------------------------|-------------------|
C|-1-0--0000000-0000000-0000000-0000000-|-4-3-1~---0~-0-0-0-|


Breakdown:


F|-------------------|
C|-------------------|
G|-------------------|
C|-6-5-3-00-0-0-0-00-|


Before:


F|-----------------------------------|
C|-----------------------------------|
G|-----------------------------------|
C|-4-3-1-0-0-0-1-0-0-0-1-0-0-0-1-0-1-|


Endriff:


F|----------------------------------|
C|-2------3------5------6-----------|
G|----------------------------------|
C|--0-0-0--0-0-0--0-0-0--0-11-4-3-1-|

Hatebreed rulez!
            
Submit corrections

comments powered by Disqus
↑ Back to top | Hatebreed Bass for Defeatist. Lyrics for acoustic guitar and electric guitar. Tablatures and chords are parodies/interpretations of the original songs. You may use it for private study, scholarship, research or language learning purposes only