» » »

Hatebreed, Before Dishonor Tabs (ver.3)

Artists:  A B C D E F G H I J K L M N O P Q R S T U V W X Y Z # 

Before Dishonor Tabs (ver.3)

Hatebreed Tabs
 Rating:
4/5 (4 votes)
Before Dishonor lessons Tabs too difficult? Try these video lessons and learn fast
                Intro 
1||-----------------||----||-----------------|-----------------|-----------------| 
2||-----------------||----||-----------------|-----------------|-----------------|
3||-----------------||----||-----------------|-----------------|-----------------| 
4||-----------------||----||-----------------|-----------------|-----------------|
5||-2-2-3-5-6-5-3-5-||-2--||-2---------------|-5-----8-----7\5-|-2---------------| 
6||-0-0-1-3-4-3-1-3-||-0--||-0---0-0-0-0-0-0-|-3-0-0-6-0-0-5\3-|-0---0-0-0-0-0-0-| 

2nd Guitar
1||------------------||-----|-----|-----|------|-----|-----|-----|-----||
2||------------------||-----|-----|-----|------|-----|-----|-----|-----|| 
3||------------------||-9---|-7---|-9---|-10---|-9---|-7---|-5---|-7---||
4||-7-----10-----9---||-----|-----|-----|------|-----|-----|-----|-----||
5||-5------8-----7---||-7---|-5---|-7---|--8---|-7---|-5---|-3---|-5---|| 
6||---0-0----0-0-----||-----|-----|-----|------|-----|-----|-----|-----|| 

"I will not be a victim..." 
1||-----------------|-----------------|-----------------|-----------------|| 
2||-----------------|-----------------|-----------------|-----------------|| 
3||-----------------|-----------------|-----------------|-----------------|| 
4||-----------------|-----------------|-----------------|-----------------||
5||-2---2---3---2---|-2---3---2---2---|-3---2---2---3---|-2-2-3-5-6-5-3-5-|| 
6||-0---0---1---0---|-0---1---0---0---|-1---0---0---1---|-0-0-1-3-4-3-1-3-|| 

"I'll choose my own destiny..." 
1||-------|-------|-------|-------|-------|-------|-------|-------------------------||
2||-------|-------|-------|-------|-------|-------|-------|-------------------------||
3||-------|-------|-------|-------|-------|-------|-------|-------------------------|| 
4||-------|-------|-7-----|-10----|-------|-------|-7-----|-12-12-12-12-12-12-12-12-|| 
5||-2-----|-------|-5-----|--8----|-2-----|-------|-5-----|-10-10-10-10-10-10-10-10-||
6||-0-----|-------|-------|-------|-0-----|-------|-------|-------------------------|| 

"I won't live in denial..."     "What i have in my heart..."
1||-----------------|------------------||---------||-----------------||------------------|| 
2||-----------------|------------------||---------||-----------------||------------------||
3||-----------------|------------------||-----9---||-----------------||------------------||
4||-----------------|/10\9---9---------||-----9---||-----------------||------------------|| 
5||---2-------2-----|/-8\7---7-7\5-5---||-2---7---||-2-2-3-5-6-5-3-5-||------------------||
6||-0-0---0-0-0---0-|----------5\3-3---||-0---0---||-0-0-1-3-4-3-1-3-||-0000113344331133-||
            
Submit corrections

comments powered by Disqus
↑ Back to top | Hatebreed Tabs for Before Dishonor. Lyrics for acoustic guitar and electric guitar. Tablatures and chords are parodies/interpretations of the original songs. You may use it for private study, scholarship, research or language learning purposes only