>
 >
A Day In The Strife 1

A Day In The Strife 1 Guitar Tabs

Hatebreed - A Day In The Strife 1 chords, tabs, tablatures, lyrics

Guitar lessons | Add/correct | Request | Top 50 tabs Artists:  A B C D E F G H I J K L M N O P Q R S T U V W X Y Z 0-9

A Day In The Strife 1 Guitar Tabs – Hatebreed

CD, Sheet music, Poster

Do you like A Day In The Strife 1? Share with your friends now
TabsTabs v2
***Song name: A day in the strife                                *
*****tune all guitars down to dropped D and then drop tune to C*** 
******************************************************************

|-----------|---------------------|-----------------------|
|-----------|---------------------|-----------------------|
|-----------|---------------------|-----------------------|
|---0-0-0---|-0-0-0-0-0-0-0-0-0---|--0-0-0-0-0-0-0-0-0-0--|
|---0-0-0---|-0-0-0-0-0-0-0-0-0---|--0-0-0-0-0-0-0-0-0-0--|
|---0-0-0---|-0-0-0-0-0-0-0-0-0---|--0-0-0-0-0-0-0-0-0-0--|
pm  .....     .................      ...................
               Repeat 4x            Repeat 4x

|-------------------|-----------|------------|
|-------------------|-----------|-------4----|
|-------------------|-----------|-------3----|
|--7-3-7-0-7-3------|-----------|------------|
|--7-3-7-0-7-3-6~~--|-----------|------------|
|--7-3-7-0-7-3-6~~--|-0-1-0-1---|-0-1-0------|
   Repeat 8x then...  Repeat 8x   Repeat 8x

|------------------|------------------------------------------|
|------------------|------------------------------------------|
|------------------|------------------------------------------|
|--7-3-7-0-7-3-----|--0-0-0-0-0-0-0-0-0-0-2-2-2-2-2-1-1-1-1-1-|
|--7-3-7-0-7-3-6~~-|--0-0-0-0-0-0-0-0-0-0-2-2-2-2-2-1-1-1-1-1-|
|--7-3-7-0-7-3-6~~-|--0-0-0-0-0-0-0-0-0-0-2-2-2-2-2-1-1-1-1-1-|
    Repeat 8x            Repeat 4x
|-----------|
|-----------|
|-----------|
|-----------|
|-----------|
|--0-1-0-1--|

|---------|-----------------------|
|---------|-----------------------|
|---------|-----------------------|
|--0-0-0--|--0-0-0-0-0-0-0-0-0-0--|
|--0-0-0--|--0-0-0-0-0-0-0-0-0-0--|
|--0-0-0--|--0-0-0-0-0-0-0-0-0-0--|
Pm .....     ...................
                 Repeat 8x    

That's it! I hope you think its ok. Listen to the song for right timing and speed!!
								Metal_Militia!
P.S.- Mike, you still did a 98% job....good werk!!





Comments


Popular Hatebreed tabs & chords
Doomsayer Bass Tabs
Every Lasting Scar Bass Tabs
This Is Now Bass Tabs
Before Dishonor Tabs
Burn The Lies Tabs
Doomsayer 1 Tabs
Doomsayer 5 Tabs
Facing What Consumes You Tabs
Mark My Words 2 Tabs
Spitting Venom Tabs


Song lyrics



↑ Back to top | Tablatures and chords are parodies/interpretations of the original songs. You may use it for private study, scholarship, research or language learning purposes only
© 2014 AZChords.com Contact us | Privacy policy | DMCA | Add/correct tabs | Request tabs | Top 50 tabs