» » »

Substance Bass tabs (ver.1)

Artists:  A B C D E F G H I J K L M N O P Q R S T U V W X Y Z # 

Substance Bass tabs (ver.1)

Haste The Day
Rating:
0/5 (0 votes)

Hard to play? Try these video lessons and learn fast.
                Haste the Day   The song is played in drop D but I have it in standard. 
Substance       If you think its too high then down tune it.What ever 
                you think is best. 
     Intro
|-------------|
|-------------|x8 
|-------------|
|-22222222-5-5|
Then let guitar play new riff once.
   
     Verse
|-----------------|
|-----------------|x5
|--------------6h8|
|-21020-444-666---| 

     Verse pt 2
|-----------------|
|-----------------|
|--------------6h8|
|-21020-888-666---|

     Verse pt 3
|---------------------------------------|
|---------------------------------------|
|---------------------------------------|
|-21020------21020------21020------21020|

Verse pt 2 x1
Verse pt 1 x1
Verse pt 2 x1
Verse pt 1 x1
 
     Verse pt 1 x3 (Bass Only)
     Verse pt 3 x1 (Bass Only)

Verse pt 1 x8

     Bridge
|--------------------------------------------|
|--------------------------------------------|
|--------------------------------------------|
|-0---------0----------0--0-00---------100101|

|---------------------|
|---------------------|x8
|---------------------|
|-100101----0-0000-102|

     Breakdown let (guitar play one time through)
|---------------------------------|
|---------------------------------|x3
|---------------------------------|
|-33333333555555557777777766666666|

|--------------|  |-----------------|  |
|--------------|3x|-----------------|x1|x2     
|-------0h2-0h1|  |-----------------|  | 
|-246542-------|  |-6666666655554433|  |

|---------------------------------|
|---------------------------------|x4
|---------------------------------|
|-33333333555555557777777766666666|

 Outro
|----|
|----|
|----|
|-2-2|

There it is. Its not perfect, but its sounds like it. 
            
Hard to play? Try these video lessons and learn fast. | Correct




comments powered by Disqus
↑ Back to top | Tablatures and chords are parodies/interpretations of the original songs. You may use it for private study, scholarship, research or language learning purposes only