» » »

Haste The Day, Substance Tabs (ver.1)

Artists:  A B C D E F G H I J K L M N O P Q R S T U V W X Y Z # 

Substance Tabs (ver.1)

Haste The Day Tabs
Rating:
0/5 (0 votes)
Hard to play? Try these video lessons and learn fast.
                
I guess this would be considered the solo, its about 2 minutes into the song.

-----------------------------------------------------------
-----------------------------------------------------------
-----------------------------------------------------------
-----------------------------------------------------------
2-2-2-3-2-2---22222--3-2-5---------------------------------
0-0-0-1-0-0---00000--1-0-3--------------------------------- Repeat 3X

-----------------
-----------------
-----------------
-----------------
2-2-2-3-2-2------ (then a short pause)
0-0-0-1-0-0------

-----------------------------------------------------------
-----------------------------------------------------------
-----------------------------------------------------------
-----------------------------------------------------------
2-2-2-3-2-2---22222--3-2-5---------------------------------
0-0-0-1-0-0---00000--1-0-3--------------------------------- Repeat 3x

-----------------------------------------------------------
-----------------------------------------------------------
-----------------------------------------------------------
-7-6-7-9-7-6-7---------------------------------------------
-----------------------------------------------------------
-----------------------------------------------------------

-----------------------------------------------------------
-----------------------------------------------------------
-----------------------------------------------------------
-----------------------------------------------------------
2-2-2-3-2-2---22222--3-2-5---------------------------------
0-0-0-1-0-0---00000--1-0-3--------------------------------- Repeat 4x

then it goes to "i Want you to know what i'm going through..."

-5555555555-7-7-7-5555555555-7-7-7-5555555555-9-9-9-7777777777-
            

comments powered by Disqus
↑ Back to top | Haste The Day Tabs for Substance. Lyrics for acoustic guitar and electric guitar. Tablatures and chords are parodies/interpretations of the original songs. You may use it for private study, scholarship, research or language learning purposes only