>
 >
Stitches

Stitches Guitar Tabs

Haste The Day - Stitches chords, tabs, tablatures, lyrics

Guitar lessons | Add/correct | Request | Top 50 tabs Artists:  A B C D E F G H I J K L M N O P Q R S T U V W X Y Z 0-9

Stitches Guitar Tabs – Haste The Day

CD, Sheet music, Poster

Do you like Stitches? Share with your friends now
TabsTabs v2
HASTE THE DAY - STITCHES

| /  slide up
| \  slide down
| h  hammer-on
| p  pull-off
| ~  vibrato
| +  harmonic
| x  Mute note

. -> indicates palm muting

Strumming is a little off on some parts, hopefully you guys get the idea. Let me know if 
needs to be fixed :)

Intro -

e|-0-0-x--0-0-x--0-0-x--0-0-x--0----0--0--0--x--0--0--0--x-0--0--0--x--|
B|-6-6-x--6-6-x--6-6-x--6-6-x--8/10-10-10-10-x--10-10-10-x-10-10-10-x--|
G|-7-7-x--7-7-x--7-7-x--7-7-x--7/9--9--9--9--x--9--9--9--x-9--9--9--x--|
D|-0-0-x--0-0-x--0-0-x--0-0-x--0----0--0--0--x--0--0--0--x-0--0--0--x--|
A|-0-0-x--0-0-x--0-0-x--0-0-x--0----0--0--0--x--0--0--0--x-0--0--0--x--|
D|---------------------------------------------------------------------|


e|-0--0--0--x-0-0-x-0-0-x-0-0-x-0-0-------0--0--0-----0--0--0--|
B|-10-10-10-x-6-6-x-6-6-x-6-6-x-6-6-------10-10-10----10-10-10-|
G|-9--9--9--x-7-7-x-7-7-x-7-7-x-7-7-------9--9--9-----9--9--9--|
D|-0--0--0--x-0-0-x-0-0-x-0-0-x-0-0-------0--0--0-----0--0--0--|
A|-0--0--0--x-0-0-x-0-0-x-0-0-x-0-0-------0--0--0-----0--0--0--|
D|----------------------------------10-10---------8-8----------|

e|-0-0-x--0-0-x--0-0-x--0-0-x--0----0--0--0--x--0--0--0--x-0--0--0--x--|
B|-6-6-x--6-6-x--6-6-x--6-6-x--8/10-10-10-10-x--10-10-10-x-10-10-10-x--|
G|-7-7-x--7-7-x--7-7-x--7-7-x--7/9--9--9--9--x--9--9--9--x-9--9--9--x--|
D|-0-0-x--0-0-x--0-0-x--0-0-x--0----0--0--0--x--0--0--0--x-0--0--0--x--|
A|-0-0-x--0-0-x--0-0-x--0-0-x--0----0--0--0--x--0--0--0--x-0--0--0--x--|
D|---------------------------------------------------------------------|


e|-0--0--0--x-0-0-x-0-0-x-0-0-x-0-0-------0--0--0-----0--0--0--|
B|-10-10-10-x-6-6-x-6-6-x-6-6-x-6-6-------10-10-10----10-10-10-|
G|-9--9--9--x-7-7-x-7-7-x-7-7-x-7-7-------9--9--9-----9--9--9--|
D|-0--0--0--x-0-0-x-0-0-x-0-0-x-0-0-------0--0--0-----0--0--0--|
A|-0--0--0--x-0-0-x-0-0-x-0-0-x-0-0-------0--0--0-----0--0--0--|
D|----------------------------------10-10---------8-8----------|
                                    *


The guitar starts playing this part when right where the * is on the above section:

e|--------------------------------------------|
B|--------------------------------------------|
G|-5-5-5-5-5-5-3-3-3-3-3-3--------------------|
D|-5-5-5-5-5-5-3-3-3-3-3-3--------------------|
A|-3-3-3-3-3-3-1-1-1-1-1-1--------------------|
D|--------------------------------------------|

Guitar 1:

e|------------------------------------------------------------|
B|------------------------------------------------------------|
G|------7-7-7-7-7-7/10\7-7-7-7-7-7----7-7-7-7-7-7-3-3-3-2-2-2-|
D|---0--x-x-x-x-x-x-x-\x-x-x-x-x-x--0-x-x-x-x-x-x-x-x-x-x-x-x-|
A|---0--5-5-5-5-5-5/8-\5-5-5-5-5-5--0-5-5-5-5-5-5-1-1-1-0-0-0-|
D|---0------------------------------0-------------------------|

e|-------------------------------------------------------------|
B|-------------------------------------------------------------|
G|------7-7-7-7-7-7/10\7-7-7-7-7-7----7-7-7-7-7-7--------------|
D|---0--x-x-x-x-x-x/x-\x-x-x-x-x-x--0-x-x-x-x-x-x--------------|
A|---0--5-5-5-5-5-5/8-\5-5-5-5-5-5--0-5-5-5-5-5-5-----7x-7x----|7x
D|---0------------------------------0-------------5-8----------|

e|------------------------------------------------------------|
B|------------------------------------------------------------|
G|------7-7-7-7-7-7/10\7-7-7-7-7-7----7-7-7-7-7-7-3-3-3-2-2-2-|
D|---0--x-x-x-x-x-x-x-\x-x-x-x-x-x--0-x-x-x-x-x-x-x-x-x-x-x-x-|
A|---0--5-5-5-5-5-5/8-\5-5-5-5-5-5--0-5-5-5-5-5-5-1-1-1-0-0-0-|
D|---0------------------------------0-------------------------|

e|---------------------------------------------------------------|
B|---------------------------------------------------------------|
G|------7-7-7-7-7-7/10\7-7-7-7-7-7----7-7-7-7-7-7----------------|
D|---0--x-x-x-x-x-x/x-\x-x-x-x-x-x--0-x-x-x-x-x-x--------------0-|
A|---0--5-5-5-5-5-5/8-\5-5-5-5-5-5--0-5-5-5-5-5-5-----7----5---0-|
D|---0------------------------------0-------------5-8---5-7--7-0-|

Guitar 2:

e|-----------3/6-5--------------------------------------|
B|-6-5-3-----------6-5---------6-5-3-------------6-5-3--|
G|-------5-2-----------7-5-----------5-2-3/5-7----------|
D|-------------------------7-------------------7--------|
A|---------------------------5--------------------------|
D|------------------------------------------------------|

e|-----------3/6-5--------------------------------------|
B|-6-5-3-----------6-5---------6-5-3--------------------|
G|-------5-2-----------7-5------------------------------|
D|-------------------------7----------------------------|
A|---------------------------5----------7x-7x-7x--------|
D|----------------------------------5-8-----------------|

e|-----------3/6-5----------------------------------------|
B|-6-5-3----------6-5---------6-5-3-------------6---3-----|
G|-------5-2----------7-5-----------5-2-3/5-7-5---5-------|
D|------------------------7-------------------------------|
A|--------------------------5-----------------------------|
D|--------------------------------------------------------|

e|-----------3/6-5----------------------------------------|
B|-6-5-3-----------6-5---------6-5-3----------------------|
G|-------5-2-----------7-5--------------------------------|
D|-------------------------7------------------------0-----|
A|---------------------------5------------5-----5---0-----|
D|------------------------------------5-8---5-7---7-0-----|

Verse -

Guitar 1:

e|---------------0-0-------0-0-0-0-0-0-0------|
B|---------------6-6-------6-6-6-6-6-6-6------|
G|-7-7-7-7-7-7-7-7-7-7-7-7-7-7-7-7-7-7-7------|
D|-7-7-7-7-7-7-7-----7-7-7-7-7-7-7-7-7-7------|
A|-5-5-5-5-5-5-5-----5-5-5-5-5-5-5-5-5-5------|
D|--------------------------------------------|
   . . . . . . .     . . . . .

e|-------------0-0-0--0-0----------------------------------------|
B|-------------6-6-6--6-6----------------------------------------|
G|-------------7-7-7--7-7----------------------------------------|
D|-0-0--0-0-0--0-0-0--0-0--8-8--8-8-8---8-8-8--7-7--7-7-7--7-7-7-|
A|-0-0--0-0-0--0-0-0--0-0--8-8--8-8-8---8-8-8--7-7--7-7-7--7-7-7-|
D|-0-0--0-0-0--0-0-0--0-0--8-8--8-8-8---8-8-8--7-7--7-7-7--7-7-7-|
        . . .                   . . .               . . .

e|--------------------------------------------------------|
B|--------------------------------------------------------|
G|--------------------------------------------------------|
D|-5-5-5-5-5-5-3-3-3-3-3-3--------------------------------|
A|-5-5-5-5-5-5-3-3-3-3-3-3--------------------------------|
D|-5-5-5-5-5-5-3-3-3-3-3-3--------------------------------|

e|-------------0-0-0--0-0----------------------------------------|
B|-------------6-6-6--6-6----------------------------------------|
G|-------------7-7-7--7-7----------------------------------------|
D|-0-0--0-0-0--0-0-0--0-0--8-8--8-8-8---8-8-8--7-7--7-7-7--7-7-7-|
A|-0-0--0-0-0--0-0-0--0-0--8-8--8-8-8---8-8-8--7-7--7-7-7--7-7-7-|
D|-0-0--0-0-0--0-0-0--0-0--8-8--8-8-8---8-8-8--7-7--7-7-7--7-7-7-|
        . . .                   . . .               . . .


e|-----------------------------------------------0-0-0-0-0-0-0---|
B|-----------------------------------------------6-6-6-6-6-6-5---|
G|-----------------------------7-7-7-7-7-7-7-7-7-7-7-7-7-7-7-7---|
D|-5-5-5-5-5-5-3-3-3-3-3-3--0x-7-7-7-7-7-7-7-7-7-7-7-7-7-7-7-7---|
A|-5-5-5-5-5-5-3-3-3-3-3-3--0x-5-5-5-5-5-5-5-5-5-5-5-5-5-5-5-5---|
D|-5-5-5-5-5-5-3-3-3-3-3-3--0x-----------------------------------|
                               . . . . . . . . .

Guitar 2:

e|--------------------------------5----5----5-----5----------------|
B|-6-5-3--6-5-3--6-5-3--6-5-3--3-5--3-5--3-5----3---6-5------------|
G|------------------------------------------------------7----------| x4
D|-----------------------------------------------------------------|
A|-----------------------------------------------------------------|
D|-----------------------------------------------------------------|
   . . .  . . .  . . .  . . .  . .  . .  . .  .

Chorus -

Guitar 1:

e|-0-0-0-0-0-0-0--0-0--0-0--0--0--------------------------------|
B|-6-6-6-6-6-6-6--6-6--6-6--6--6--------------------------------|
G|-7-7-7-7-7-7-7--7-7--7-7--7--7-3-3-3-3-3-3-3-3-3/5-5-5-5-5-5--|
D|-0-0-0-0-0-0-0--0-0--0-0--0--0-3-3-3-3-3-3-3-3-3---3-3-3-3-3--|
A|-0-0-0-0-0-0-0--0-0--0-0--0--0-1-1-1-1-1-1-1-1-1---3-3-3-3-3--|
D|-0-0-0-0-0-0-0--0-0--0-0--0--0---------------------3-3-3-3-3--|
                  . .

e|-----------------------------------------------------------------------|
B|-----------------------------------------------------------------------|
G|-5-5-5-5-5-------------------------------------------------------------|
D|-3-3-3-3-3-5-5---------------------------------------------------------|
A|-3-3-3-3-3-5-5---------------------------------------------------------|
D|-3-3-3-3-3-5-5-5-5-5-5-5-5-5-5-----------------------------------------|
                 b b b b b b b b

e|-0-0-0-0-0-0-0--0-0--0-0--0--0--------------------------------|
B|-6-6-6-6-6-6-6--6-6--6-6--6--6--------------------------------|
G|-7-7-7-7-7-7-7--7-7--7-7--7--7-3-3-3-3-3-3-3-3-3/5-5-5-5-5-5--|
D|-0-0-0-0-0-0-0--0-0--0-0--0--0-3-3-3-3-3-3-3-3-3---3-3-3-3-3--|
A|-0-0-0-0-0-0-0--0-0--0-0--0--0-1-1-1-1-1-1-1-1-1---3-3-3-3-3--|
D|-0-0-0-0-0-0-0--0-0--0-0--0--0---------------------3-3-3-3-3--|
                  . .

e|-----------------------------------------------------------------------|
B|-----------------------------------------------------------------------|
G|-5-5-5-5-5-------------------------------------------------------------|
D|-3-3-3-3-3-5-5---------------------------------------------------------|
A|-3-3-3-3-3-5-5---------------------------------------------------------|
D|-3-3-3-3-3-5-5-5-5-5-5-5-5-5-5-----------------------------------------|
                 b b b b b b b b

Guitar 2 - The only thing guitar two does differently is in the beginning - instead of 
it open, play it like this:

e|-0-0-0-0-0-0-0--0-0--0-0--0--0-----------------------------------------|
B|-6-6-6-6-6-6-6--6-6--6-6--6--6-----------------------------------------|
G|-7-7-7-7-7-7-7--7-7--7-7--7--7-----------------------------------------|
D|-7-7-7-7-7-7-7--7-7--7-7--7--7-----------------------------------------|
A|-5-5-5-5-5-5-5--5-5--5-5--5--5-----------------------------------------|
D|-----------------------------------------------------------------------|
                  . .

Back to intro -

Guitar 1:

e|------------------------------------------------------------|
B|------------------------------------------------------------|
G|------7-7-7-7-7-7/10\7-7-7-7-7-7----7-7-7-7-7-7-3-3-3-2-2-2-|
D|---0--x-x-x-x-x-x-x-\x-x-x-x-x-x--0-x-x-x-x-x-x-x-x-x-x-x-x-|
A|---0--5-5-5-5-5-5/8-\5-5-5-5-5-5--0-5-5-5-5-5-5-1-1-1-0-0-0-|
D|---0------------------------------0-------------------------|

e|--------------------------------------------------------------------|
B|--------------------------------------------------------------------|
G|------7-7-7-7-7-7/10\7-7-7-7-7-7----7-7-7-7-7-7---------------------|
D|---0--x-x-x-x-x-x/x-\x-x-x-x-x-x--0-x-x-x-x-x-x---------------------|
A|---0--5-5-5-5-5-5/8-\5-5-5-5-5-5--0-5-5-5-5-5-5--3/8-7-5-----8-7-5--|
D|---0------------------------------0----------------------7-5--------|

Guitar 2:

e|-----------3/6-5--------------------------------------|
B|-6-5-3-----------6-5---------6-5-3-------------6-5-3--|
G|-------5-2-----------7-5-----------5-2-3/5-7----------|
D|-------------------------7-------------------7--------|
A|---------------------------5--------------------------|
D|------------------------------------------------------|

e|-----------3/6-5--------------------------------------|
B|-6-5-3-----------6-5---------6-5-3--------------------|
G|-------5-2-----------7-5------------------------------|
D|-------------------------7----------------------------|
A|---------------------------5--------3/8-7-5-----8-7-5-|
D|--------------------------------------------7-5-------|

Verse -

Guitar 1:

e|-------------0-0-0--0-0----------------------------------------|
B|-------------6-6-6--6-6----------------------------------------|
G|-------------7-7-7--7-7----------------------------------------|
D|-0-0--0-0-0--0-0-0--0-0--8-8--8-8-8---8-8-8--7-7--7-7-7--7-7-7-|
A|-0-0--0-0-0--0-0-0--0-0--8-8--8-8-8---8-8-8--7-7--7-7-7--7-7-7-|
D|-0-0--0-0-0--0-0-0--0-0--8-8--8-8-8---8-8-8--7-7--7-7-7--7-7-7-|
        . . .                   . . .               . . .

e|--------------------------------------------------------|
B|--------------------------------------------------------|
G|--------------------------------------------------------|
D|-5-5-5-5-5-5-3-3-3-3-3-3--------------------------------|
A|-5-5-5-5-5-5-3-3-3-3-3-3--------------------------------|
D|-5-5-5-5-5-5-3-3-3-3-3-3--------------------------------|


e|-------------0-0-0--0-0----------------------------------------|
B|-------------6-6-6--6-6----------------------------------------|
G|-------------7-7-7--7-7----------------------------------------|
D|-0-0--0-0-0--0-0-0--0-0--8-8--8-8-8---8-8-8--7-7--7-7-7--7-7-7-|
A|-0-0--0-0-0--0-0-0--0-0--8-8--8-8-8---8-8-8--7-7--7-7-7--7-7-7-|
D|-0-0--0-0-0--0-0-0--0-0--8-8--8-8-8---8-8-8--7-7--7-7-7--7-7-7-|
        . . .                   . . .               . . .

e|--------------------------------------------------------|
B|--------------------------------------------------------|
G|--------------------------------------------------------|
D|-5-5-5-5-5-5-3-3-3-3-3-3--------------------------------|
A|-5-5-5-5-5-5-3-3-3-3-3-3--------------------------------|
D|-5-5-5-5-5-5-3-3-3-3-3-3--------------------------------|


Guitar 2 - Listen for this part for timing:

e|----5----5----5---5--------------|
B|-3-5--3-5--3-5--3--6-5-----------|
G|----------------------7----------| x2
D|---------------------------------|
A|---------------------------------|
D|---------------------------------|


Chorus -

e|-0-0-0-0-0-0-0--0-0--0-0--0--0--------------------------------|
B|-6-6-6-6-6-6-6--6-6--6-6--6--6--------------------------------|
G|-7-7-7-7-7-7-7--7-7--7-7--7--7-3-3-3-3-3-3-3-3-3/5-5-5-5-5-5--|
D|-0-0-0-0-0-0-0--0-0--0-0--0--0-3-3-3-3-3-3-3-3-3---3-3-3-3-3--|
A|-0-0-0-0-0-0-0--0-0--0-0--0--0-1-1-1-1-1-1-1-1-1---3-3-3-3-3--|
D|-0-0-0-0-0-0-0--0-0--0-0--0--0---------------------3-3-3-3-3--|
                  . .

e|-----------------------------------------------------------------------|
B|-----------------------------------------------------------------------|
G|-5-5-5-5-5-------------------------------------------------------------|
D|-3-3-3-3-3-5-5---------------------------------------------------------|
A|-3-3-3-3-3-5-5---------------------------------------------------------|
D|-3-3-3-3-3-5-5-5-5-5-5-5-5-5-5-----------------------------------------|
                 b b b b b b b b

e|-0-0-0-0-0-0-0--0-0--0-0--0--0--------------------------------|
B|-6-6-6-6-6-6-6--6-6--6-6--6--6--------------------------------|
G|-7-7-7-7-7-7-7--7-7--7-7--7--7-3-3-3-3-3-3-3-3-3/5-5-5-5-5-5--|
D|-0-0-0-0-0-0-0--0-0--0-0--0--0-3-3-3-3-3-3-3-3-3---3-3-3-3-3--|
A|-0-0-0-0-0-0-0--0-0--0-0--0--0-1-1-1-1-1-1-1-1-1---3-3-3-3-3--|
D|-0-0-0-0-0-0-0--0-0--0-0--0--0---------------------3-3-3-3-3--|
                  . .

e|-----------------------------------------------------------------------|
B|-----------------------------------------------------------------------|
G|-5-5-5-5-5-------------------------------------------------------------|
D|-3-3-3-3-3-5-5---------------------------------------------------------|
A|-3-3-3-3-3-5-5---------------------------------------------------------|
D|-3-3-3-3-3-5-5-5-5-5-5-5-5-5-5-----------------------------------------|
                 b b b b b b b b

Guitar 2 - The only thing guitar two does differently is in the beginning - instead of 
it open, play it like this:

e|-0-0-0-0-0-0-0--0-0--0-0--0--0-----------------------------------------|
B|-6-6-6-6-6-6-6--6-6--6-6--6--6-----------------------------------------|
G|-7-7-7-7-7-7-7--7-7--7-7--7--7-----------------------------------------|
D|-7-7-7-7-7-7-7--7-7--7-7--7--7-----------------------------------------|
A|-5-5-5-5-5-5-5--5-5--5-5--5--5-----------------------------------------|
D|-----------------------------------------------------------------------|
                  . .

Interlude -

Guitar 1:

e|-0-0-x--0-0-x--0-0-x--0-0-x--0----0--0--0--x--0--0--0--x-0--0--0--x--|
B|-6-6-x--6-6-x--6-6-x--6-6-x--8/10-10-10-10-x--10-10-10-x-10-10-10-x--|
G|-7-7-x--7-7-x--7-7-x--7-7-x--7/9--9--9--9--x--9--9--9--x-9--9--9--x--|
D|-0-0-x--0-0-x--0-0-x--0-0-x--0----0--0--0--x--0--0--0--x-0--0--0--x--|
A|-0-0-x--0-0-x--0-0-x--0-0-x--0----0--0--0--x--0--0--0--x-0--0--0--x--|
D|---------------------------------------------------------------------|


e|-0--0--0--x-0-0-x-0-0-x-0-0-x-0-0-------0--0--0-----0--0--0--|
B|-10-10-10-x-6-6-x-6-6-x-6-6-x-6-6-------10-10-10----10-10-10-|
G|-9--9--9--x-7-7-x-7-7-x-7-7-x-7-7-------9--9--9-----9--9--9--|
D|-0--0--0--x-0-0-x-0-0-x-0-0-x-0-0-------0--0--0-----0--0--0--|
A|-0--0--0--x-0-0-x-0-0-x-0-0-x-0-0-------0--0--0-----0--0--0--|
D|----------------------------------10-10---------8-8----------|

e|-0-0-x--0-0-x--0-0-x--0-0-x--0----0--0--0--x--0--0--0--x-0--0--0--x--|
B|-6-6-x--6-6-x--6-6-x--6-6-x--8/10-10-10-10-x--10-10-10-x-10-10-10-x--|
G|-7-7-x--7-7-x--7-7-x--7-7-x--7/9--9--9--9--x--9--9--9--x-9--9--9--x--|
D|-0-0-x--0-0-x--0-0-x--0-0-x--0----0--0--0--x--0--0--0--x-0--0--0--x--|
A|-0-0-x--0-0-x--0-0-x--0-0-x--0----0--0--0--x--0--0--0--x-0--0--0--x--|
D|---------------------------------------------------------------------|


e|-0--0--0--x-0-0-x-0-0-x-0-0-x-0-0-------0--0--0-----0--0--0--|
B|-10-10-10-x-6-6-x-6-6-x-6-6-x-6-6-------10-10-10----10-10-10-|
G|-9--9--9--x-7-7-x-7-7-x-7-7-x-7-7-------9--9--9-----9--9--9--|
D|-0--0--0--x-0-0-x-0-0-x-0-0-x-0-0-------0--0--0-----0--0--0--|
A|-0--0--0--x-0-0-x-0-0-x-0-0-x-0-0-------0--0--0-----0--0--0--|
D|----------------------------------10-10---------8-8----------|

Guitar 2 comes in:

e|-3/6-5--------------------------------------|
B|-------6-5----------------------------------|
G|-----------7-5------------------------------|
D|---------------7----------------------------|
A|--------------------------------------------|
D|--------------------------------------------|

Guitar 1:

e|-0-0-x-0-0-x-0-0-x-0-0-----|
B|-6-6-x-6-6-x-6-6-x-6-6-----|
G|-7-7-x-7-7-x-7-7-x-7-7-----| x3
D|-0-0-x-0-0-x-0-0-x-0-0-----|
A|-0-0-x-0-0-x-0-0-x-0-0-----|
D|-0-0-x-0-0-x-0-0-x-0-0-8\0-|


e|--------------------------------|
B|--------------------------------|
G|-10\7-7-7-7-7-7-10\7-7-7-7-7-7--|
D|-x-\x-x-x-x-x-x-x-\x-x-x-x-x-x--| x2 *
A|-8-\5-5-5-5-5-5-8-\5-5-5-5-5-5--|
D|--------------------------------|

Guitar 2:

e|-3/6-5--------------------------------------|
B|-------6-5----------------------------------|
G|-----------7-5------------------------------|
D|---------------7----------------------------| x2 *
A|--------------------------------------------|
D|--------------------------------------------|

!! Note !! The items w/ the * are played at the same time during the interlude.

Chorus -

e|-0-0-0-0-0-0-0--0-0--0-0--0--0--------------------------------|
B|-6-6-6-6-6-6-6--6-6--6-6--6--6--------------------------------|
G|-7-7-7-7-7-7-7--7-7--7-7--7--7-3-3-3-3-3-3-3-3-3/5-5-5-5-5-5--|
D|-0-0-0-0-0-0-0--0-0--0-0--0--0-3-3-3-3-3-3-3-3-3---3-3-3-3-3--|
A|-0-0-0-0-0-0-0--0-0--0-0--0--0-1-1-1-1-1-1-1-1-1---3-3-3-3-3--|
D|-0-0-0-0-0-0-0--0-0--0-0--0--0---------------------3-3-3-3-3--|
                  . .

e|-----------------------------------------------------------------------|
B|-----------------------------------------------------------------------|
G|-5-5-5-5-5-------------------------------------------------------------|
D|-3-3-3-3-3-5-5---------------------------------------------------------|
A|-3-3-3-3-3-5-5---------------------------------------------------------|
D|-3-3-3-3-3-5-5-5-5-5-5-5-5-5-5-----------------------------------------|
             b b b b b b b b

e|-0-0-0-0-0-0-0--0-0--0-0--0--0--------------------------------|
B|-6-6-6-6-6-6-6--6-6--6-6--6--6--------------------------------|
G|-7-7-7-7-7-7-7--7-7--7-7--7--7-3-3-3-3-3-3-3-3-3/5-5-5-5-5-5--|
D|-0-0-0-0-0-0-0--0-0--0-0--0--0-3-3-3-3-3-3-3-3-3---3-3-3-3-3--|
A|-0-0-0-0-0-0-0--0-0--0-0--0--0-1-1-1-1-1-1-1-1-1---3-3-3-3-3--|
D|-0-0-0-0-0-0-0--0-0--0-0--0--0---------------------3-3-3-3-3--|
                  . .

e|-----------------------------------------------------------------------|
B|-----------------------------------------------------------------------|
G|-5-5-5-5-5-------------------------------------------------------------|
D|-3-3-3-3-3-5-5---------------------------------------------------------|
A|-3-3-3-3-3-5-5---------------------------------------------------------|
D|-3-3-3-3-3-5-5-5-5-5-5-5-5-5-5-----------------------------------------|
             b b b b b b b b

e|-0-0-0-0-0-0-0--0-0--0-0--0--0--------------------------------|
B|-6-6-6-6-6-6-6--6-6--6-6--6--6--------------------------------|
G|-7-7-7-7-7-7-7--7-7--7-7--7--7-3-3-3-3-3-3-3-3-3/5-5-5-5-5-5--|
D|-0-0-0-0-0-0-0--0-0--0-0--0--0-3-3-3-3-3-3-3-3-3---3-3-3-3-3--|
A|-0-0-0-0-0-0-0--0-0--0-0--0--0-1-1-1-1-1-1-1-1-1---3-3-3-3-3--|
D|-0-0-0-0-0-0-0--0-0--0-0--0--0---------------------3-3-3-3-3--|
                  . .

e|-----------------------------------------------------------------------|
B|-----------------------------------------------------------------------|
G|-5-5-5-5-5-------------------------------------------------------------|
D|-3-3-3-3-3-5-5---------------------------------------------------------|
A|-3-3-3-3-3-5-5---------------------------------------------------------|
D|-3-3-3-3-3-5-5-5-5-5-5-5-5-5-5-----------------------------------------|
             b b b b b b b b

e|-0-0-0-0-0-0-0--0-0--0-0--0--0----------------------------------------|
B|-6-6-6-6-6-6-6--6-6--6-6--6--6----------------------------------------|
G|-7-7-7-7-7-7-7--7-7--7-7--7--7-3x-5-5-5-5-5-5-5-5-5-------------------|
D|-0-0-0-0-0-0-0--0-0--0-0--0--0-3x-3-3-3-3-3-3-3-3-3-5-5---------------|
A|-0-0-0-0-0-0-0--0-0--0-0--0--0-1x-3-3-3-3-3-3-3-3-3-5-5---------------|
D|-0-0-0-0-0-0-0--0-0--0-0--0--0----3-3-3-3-3-3-3-3-3-5-5-5-5-5-5-5-5-5-|
                  . .                                     b b b b b b b


Guitar 2 - The only thing guitar two does differently is in the beginning - instead of 
it open, play it like this:

e|-0-0-0-0-0-0-0--0-0--0-0--0--0-----------------------------------------|
B|-6-6-6-6-6-6-6--6-6--6-6--6--6-----------------------------------------|
G|-7-7-7-7-7-7-7--7-7--7-7--7--7-----------------------------------------|
D|-7-7-7-7-7-7-7--7-7--7-7--7--7-----------------------------------------|
A|-5-5-5-5-5-5-5--5-5--5-5--5--5-----------------------------------------|
D|-----------------------------------------------------------------------|
                  . .

End with this:

e|-------------0-0\-----------------------------------|
B|-------------6-6\-----------------------------------|
G|-------------7-7\-----------------------------------|
D|-0-0--0-0-0--0-0\-----------------------------------|
A|-0-0--0-0-0--0-0\-----------------------------------|
D|-0-0--0-0-0--0-0\-----------------------------------|
        . . .





Comments


Popular Haste The Day tabs & chords
Chorus Of Angels Bass Tabs
Last Goodbye Bass Tabs
An Honest Confession Intro Tabs
Invoke Reform Tabs
Minor Prophets Tabs
OracleIntro Tabs
Song Of Faith 1 Tabs
Stitches 1 Tabs
This Time Its Real 1 Tabs
Travesty Ukulele


Song lyrics



↑ Back to top | Tablatures and chords are parodies/interpretations of the original songs. You may use it for private study, scholarship, research or language learning purposes only
© 2014 AZChords.com Contact us | Privacy policy | DMCA | Add/correct tabs | Request tabs | Top 50 tabs