>
 >
Song Of Faith

Song Of Faith Guitar Tabs

Haste The Day - Song Of Faith chords, tabs, tablatures, lyrics

Guitar lessons | Add/correct | Request | Top 50 tabs Artists:  A B C D E F G H I J K L M N O P Q R S T U V W X Y Z 0-9

Song Of Faith Guitar Tabs – Haste The Day

CD, Sheet music, Poster

Do you like Song Of Faith? Share with your friends now
TabsTabs v2
2004 Solid State Records

Drop C


0:00 - 0:20
|--------------------------------|
|--5-6-5-----------5-6-5-8-5h6p5-|
|-7------5-5h7p5--7--------------|
|--------------------------------|
|--------------------------------|
|--------------------------------|


0:20 - 0:43
|----------------------|
|----------------------|
|-7--9--10-9--5-5-7----|
|----------------------|
|-5--7--8--7--3-3-5----|
|----------------------|

|------------------------|
|------------------------|
|-7--9--10--9--12--9--10-|
|------------------------|
|-5--7--8---7--10--7--8--|
|------------------------|


0:43 - 1:15
|-----------------------------|
|-----------------------------|
|-7--9--7--10--7--9--7--12----|
|-----------------------------|
|-5--7--5--8---5--7--5--10----|
|-----------------------------|

|----------------------|
|----------------------|
|-7--9--7--7--7--5--5--|
|----------7--7--5--5--|
|-5--7--5--5--5--3--3--|
|----------------------|


1:15 - 1:45
|--------------|
|--------------|
|-7--10--3--2--|
|--------------|
|-5--8---1--0--|
|--------------|


1:45 - 2:16
|-------------------------------------|
|-------------------------------------|
|------------------------12-12-12-12--|
|-0-0-0-00000-0---0-0-0---------------|
|-0-0-0-00000-0---0-0-0--10-10-10-10--|
|-0-0-0-00000-0---0-0-0---------------|


2:16 - 2:47  strum each octave a lot
|-------------------|
|-------------------|
|-14---10---12------|
|-------------------|
|-12---8----10------|
|-------------------|


2:47 - 3:06
|-------------------------------------|
|-------------------------------------|
|------------------------12-12-12-12--|
|-0-0-0-00000-0---0-0-0---------------|
|-0-0-0-00000-0---0-0-0--10-10-10-10--|
|-0-0-0-00000-0---0-0-0---------------|


3:06 - 3:36
|-------------------|
|-------------------|
|-7v--5v--3v--2v----| one guitar repeats this
|-------------------|
|-------------------|
|-------------------|

|-------------------------------------|
|-------------------------------------|
|-7---7-7s9---9-9s10---10-10s12-------| other repeats this after
|-------------------------------------| above gets through once
|-------------------------------------|
|-------------------------------------|


heres my best version of the riff the play

|----5---5-6-5---5----5---5-6-5---5------5---5-6-5---5----5---5-6-5---5----|
|------6-------6--------6-------6----------6-------6--------6-------6------|
|--7----------------5------------------------------------------------------|
|-------------------------------------8-----------------7------------------|
|--------------------------------------------------------------------------|
|--------------------------------------------------------------------------|


3:48 - end

|--------------------------------|
|--------------------------------|
|-7--9--10--12-------------------|
|--------------------------------|
|-5--7--8---10-------------------|
|--------------------------------|

its basically that with some improv.





Comments


Popular Haste The Day tabs & chords
American Love 1 Bass Tabs
Travesty Bass Tabs
Autumn Chords
Travesty Chords
Autumn 2 Tabs
Concerning The Way It Was Tabs
Dogs Like Vultures Intro Tabs
O Come Emmanuel 1 Tabs
Ros King Tabs
Servant Ties Intro Tabs


Song lyrics



↑ Back to top | Tablatures and chords are parodies/interpretations of the original songs. You may use it for private study, scholarship, research or language learning purposes only
© 2014 AZChords.com Contact us | Privacy policy | DMCA | Add/correct tabs | Request tabs | Top 50 tabs