» » »

Mad Man Tabs (ver.1)

Artists:  A B C D E F G H I J K L M N O P Q R S T U V W X Y Z # 

Mad Man Tabs (ver.1)

Haste The Day
Rating:
0/5 (0 votes)

Tabs too difficult? Try these video lessons and learn fast.
                
Tuning: Drop C (C#-G#-C#-F#-A#-D#)

Intro
E|--------------------------------------------------------------------|
B|--------------------------------------------------------------------|
G|--------------------------------------------------------------------|
D|----------------------------------7------------------------------5~-|
A|8--------7----13---12------7-8-10---10-8-7--8------7---12---10---0~-|
E|---0--0----------------0-0---------------------0-0---------------7~-|
     .  .                . .                     . .
Verse
E|----------------------------------------------------------------|
B|----------------------------------------------------------------|
G|----------------------------------------------------------------|
D|-8-----8---8---8-----8---8---8-----8---8---8---7-----7---7---7--|
A|-8-----8---8---8-----8---8---8-----8---8---8---7-----7---7---7--|
E|-8-0-0-8-0-8-0-8-0-0-8-0-8-0-8-0-0-8-0-8-0-8-0-7-0-0-7-0-7-0-7--|
     . .   .   .   . .   .   .   . .   .   .   .   . .   .   .
Chorus

Gtr.1
E|--------------------------------------------------------------------------|
B|--------------------------------------------------------------------------|
G|--------------------------------------------------------------------------|
D|-0-----3------8---------7-------------------------------------------------|
A|-0-----3------8---------7-------------------------------------------------|
E|-0-----3------8---------7-------------------------------------------------|

Gtr.2
E|--------------------------------------------------------------------------|
B|--------------------------------------------------------------------------|
G|----12--12--14------12--12--14----12--12--14-----12--14--15----12--14-15--|
D|-12-------------12--------------12-------------12------------12-----------|
A|--------------------------------------------------------------------------|
E|--------------------------------------------------------------------------|

E|--------------------------------|
B|--------------------------------|
G|-----12--14--15-----12--12--14--|
D|-12--------------12-------------|
A|--------------------------------|
E|--------------------------------|


Bridge pt. 1
E|-------------------------------------------------------|
B|-------------------------------------------------------|
G|-------------------------------------------------------|
D|-3---2---8---7---------------------3---2---7---5---2~--|
A|-3---2---8---7---------------------3---2---7---5---2~--|
E|-3---2---8---7--0-0-0-0-0-0-0-0-0--3---2---7---5---2~--|

Bridge pt. 2

E|---------------------------------------------------------------|
B|---------------------------------------------------------------|
G|---------------------------------------------------------------|
D|---------------------------------------------------------------|
A|-3-----2-----8-----7----------------3-----2-----7-----5-----2--|
E|-3-0-0-2-0-0-8-0-0-7-0-0-0-0000000--3-0-0-2-0-0-7-0-0-5-0-0-2--|

BREAKDOWN (Figure out the Chugging)
E|--------------------------------------------------------------------------|
B|--------------------------------------------------------------------------|
G|--------------------------------------------------------------------------|
D|--------------------------------------------------------------------------|
A|-0-0----------------------------------------------------------------------|
E|-0-0-----7*---------------------------------------------------------------|
   . .
Final Chorus Variation

Gtr.2
E|--------------------------------------------------|
B|18---17---15~----14--18---17---15~----14--15~-----|
G|--------------------------------------------------|
D|--------------------------------------------------|
A|--------------------------------------------------|
E|--------------------------------------------------|

 Gtr.1
E|--------------------------------------------------------------------------|
B|--------------------------------------------------------------------------|
G|--------------------------------------------------------------------------|
D|-0-----3------8---------7-------------------------------------------------|
A|-0-----3------8---------7-------------------------------------------------|
E|-0-----3------8---------7-------------------------------------------------|

Order

Intro (x2)
Verse1 (x2)
Intro (x2)
Chorus1 (x2)
Bridge pt. 1 (x2)
Bridge pt. 2 (x2)
Verse 2(x2)
Chorus2 (x2)
BREAKDOWN
Chorus3 (x4)
            
Tabs too difficult? Try these video lessons and learn fast.




comments powered by Disqus
↑ Back to top | Tablatures and chords are parodies/interpretations of the original songs. You may use it for private study, scholarship, research or language learning purposes only