» » »

Haste The Day, Haunting Tabs (ver.1)

Artists:  A B C D E F G H I J K L M N O P Q R S T U V W X Y Z # 

Haunting Tabs (ver.1)

Haste The Day Tabs
 Rating:
4.3/5 (6 votes)
Haunting lessons Tabs too difficult? Try these video lessons and learn fast
                ---------------------------------------------------------------------------
                                Haunting
                             Haste the Day
---------------------------------------------------------------------------

Ok let me start out by saying, this is probably the best album Haste the Day has made!
been listening to them since I starting tabbing, and I noticed one of their best songs
have a tab, so I have a treat for you! I had a hard time on the chorus, guitar 2,
it is so compacted with notes at one spot, but I still got it. Enjoy! NOTE!!! THE GUITAR 
PART FOR THE CHORUS WAS A CORRECTION BY ZackyA. I give him credit for some of this tab.

Username: dkm817 (same on X box live)


Intro x2

Guitar 1
D-------------------------------------------------------------------------|
A-------------------------------------------------------------------------|
F-------------------------------------------------------------------------|
C-0~~-0~~-0~~~~~~~--2~~-2~~-2/3~~~~~~--8~~-8~~-8~~~~~~~--5~~-5~~-5~~~~~~~-|
G-0~~-0~~-0~~~~~~~--2~~-2~~-2/3~~~~~~--8~~-8~~-8~~~~~~~--5~~-5~~-5~~~~~~~-|
C-0~~-0~~-0~~~~~~~--2~~-2~~-2/3~~~~~~--8~~-8~~-8~~~~~~~--5~~-5~~-5~~~~~~~-|

Guitar 2
D-------------------------------------------------------------------------|
A-------------------------------------------------------------------------|
F-------------------6~~-6~~-6/7~~~~~~-------------------------------------|
C-0~~-0~~-0~~~~~~~--6~~-6~~-6/7~~~~~~--8~~-8~~-8~~~~~~~--5~~-5~~-5~~~~~~~-|
G-0~~-0~~-0~~~~~~~--4~~-4~~-4/5~~~~~~--8~~-8~~-8~~~~~~~--5~~-5~~-5~~~~~~~-|
C-0~~-0~~-0~~~~~~~---------------------8~~-8~~-8~~~~~~~--5~~-5~~-5~~~~~~~-|

Verse 1

Guitar 1
D------------------------------------------------------------------|
A------------------------------------------------------------------|
F------------------------------------------------------------------|
C-0-0-0-0-0-0-0-0-2-2-2-2-2-2-2-2-8-8-8-8-8-8-8-8-5-5-5-5-5-5-5-5--| x2
G-0-0-0-0-0-0-0-0-2-2-2-2-2-2-2-2-8-8-8-8-8-8-8-8-5-5-5-5-5-5-5-5--|
C-0-0-0-0-0-0-0-0-2-2-2-2-2-2-2-2-8-8-8-8-8-8-8-8-5-5-5-5-5-5-5-5--|

Guitar 1 continued
D-----------------|
A-----------------|
F-----------------|
C-5-5-5-5-5-5-5-5-|
G-5-5-5-5-5-5-5-5-|
C-5-5-5-5-5-5-5-5-|

Guitar 2
D-----------------------------------------------------|
A-----------------------------------------------------|
F-7--5h7--5h7--7-5-7-8-7-5--7--5h7--5h7--7-5-7-8-7-5--|
C-----------------------------------------------------| x5
G-----------------------------------------------------|
C-----------------------------------------------------|

Pre Chorus x2

Guitar 1
D-------------------------------------------------------------------|
A-------------------------------------------------------------------|
F----------------------------------5-5-5-5-5-5-5-5--6-6-6-6-6-6-6-6-|
C-8-8-8-8-8-8-8-8-8-8-8-8-8-8-8-8--5-5-5-5-5-5-5-5--6-6-6-6-6-6-6-6-|
G-8-8-8-8-8-8-8-8-8-8-8-8-8-8-8-8--3-3-3-3-3-3-3-3--4-4-4-4-4-4-4-4-|
C-8-8-8-8-8-8-8-8-8-8-8-8-8-8-8-8-----------------------------------|

Guitar 2
D-------------------------------------------------------|
A-------------------------------10-10-10-10-10-10-10-10-|
F-3~-3h5-3-3h5-3-3h5-3-3h5-3h5--14-14-14-14-14-14-14-14-|
C-------------------------------------------------------|
G-------------------------------------------------------|
C-------------------------------------------------------|

Guitar 2 continued
D-------------------------|
A-8--8--8--8--8--8--8--8--|
F-12-12-12-12-12-12-12-12-|
C-------------------------|
G-------------------------|
C-------------------------|

Chorus x4

Guitar 1
D-------------------------------------------------------------------|
A-------------------------------------------------------------------|
F-------------------------------------------------------------------|
C-0-0-0-0-0-0-0-0--3-3-3-3-3-3-3-3--8-8-8-8-8-8-8-8-8-8-8-8-8-8-8-8-|
G-0-0-0-0-0-0-0-0--3-3-3-3-3-3-3-3--8-8-8-8-8-8-8-8-8-8-8-8-8-8-8-8-|
C-0-0-0-0-0-0-0-0--3-3-3-3-3-3-3-3--8-8-8-8-8-8-8-8-8-8-8-8-8-8-8-8-|

Guitar 2
D------------------------------------------------------------------|
A------------------------------8~----------------------------------|
F-7-7-9b10b9-7----7-9-7-7-10-7------7-7-9b10b9-7----7-9-7-7-10-7-5-|
C--------------10--------------------------------------------------|
G------------------------------------------------------------------|
C------------------------------------------------------------------|

Break Off (from chorus to breakdown)

Guitar 2
D--------------------------------------------------------------------|
A--------------------------------------------------------------------|
F-7-7-7-7-7-7-7-7-7-7-7-7-7-7-7-7-7--6-6-6-6-6-6-6-6-6-6-6-6-6-6-6-6-|
C-x-x-x-x-x-x-x-x-x-x-x-x-x-x-x-x-x--x-x-x-x-x-x-x-x-x-x-x-x-x-x-x-x-|
G-5-5-5-5-5-5-5-5-5-5-5-5-5-5-5-5-5--4-4-4-4-4-4-4-4-4-4-4-4-4-4-4-4-|
C--------------------------------------------------------------------|

Breakdown

Guitar 1 & 2
D-----------------------------------------------------------------|
A-----------------------------------------------------------------|
F------------------------------13------------------------------13-|
C------------------------------x-------------------------------x--|
G------------------------------11------------------------------11-|
C-0--2---3--0-0---0---0--0---0----0--2---3--0-0---0---0--0---0----|

Guitar 1 & 2
D---------------------------------------------------------------------------|
A---------------------------------------------------------------10b-10b-10--|b
F-------------------------------13------------------------------13b-13b-13--|b
C-------------------------------x-------------------------------------------|
G------------------------------11-------------------------------------------|
C-0--2---3--0-0---0---0--0---0----0--2---3--0-0---0---0--0---0--------------|

Guitar 1 & 2
D-----------------------------------------------------------------|
A-----------------------------------------------------------------|
F------------------------------13------------------------------13-|
C------------------------------x-------------------------------x--|
G------------------------------11------------------------------11-|
C-0--2---3--0-0---0---0--0---0----0--2---3--0-0---0---0--0---0----|

Guitar 1 & 2
D-----------------------------------------------------------------------|
A---------------------------------------------------------------10b-10--|b
F------------------------------13-------------------------------13b-13--|b
C------------------------------x----------------------------------------|
G------------------------------11---------------------------------------|
C-0--2---3--0-0---0---0--0---0----0--2---3--0-0---0---0--0---0----------|

Pre Chorus x2

Guitar 1
D-------------------------------------------------------------------|
A-------------------------------------------------------------------|
F----------------------------------5-5-5-5-5-5-5-5--6-6-6-6-6-6-6-6-|
C-8-8-8-8-8-8-8-8-8-8-8-8-8-8-8-8--5-5-5-5-5-5-5-5--6-6-6-6-6-6-6-6-|
G-8-8-8-8-8-8-8-8-8-8-8-8-8-8-8-8--3-3-3-3-3-3-3-3--4-4-4-4-4-4-4-4-|
C-8-8-8-8-8-8-8-8-8-8-8-8-8-8-8-8-----------------------------------|

Guitar 2
D-------------------------------------------------------|
A-------------------------------10-10-10-10-10-10-10-10-|
F-3~-3h5-3-3h5-3-3h5-3-3h5-3h5--14-14-14-14-14-14-14-14-|
C-------------------------------------------------------|
G-------------------------------------------------------|
C-------------------------------------------------------|

Guitar 2 continued
D-------------------------|
A-8--8--8--8--8--8--8--8--|
F-12-12-12-12-12-12-12-12-|
C-------------------------|
G-------------------------|
C-------------------------|

Chorus x4

Guitar 1
D-------------------------------------------------------------------|
A-------------------------------------------------------------------|
F-------------------------------------------------------------------|
C-0-0-0-0-0-0-0-0--3-3-3-3-3-3-3-3--8-8-8-8-8-8-8-8-8-8-8-8-8-8-8-8-|
G-0-0-0-0-0-0-0-0--3-3-3-3-3-3-3-3--8-8-8-8-8-8-8-8-8-8-8-8-8-8-8-8-|
C-0-0-0-0-0-0-0-0--3-3-3-3-3-3-3-3--8-8-8-8-8-8-8-8-8-8-8-8-8-8-8-8-|

Guitar 2
D------------------------------------------------------------------|
A------------------------------8~----------------------------------|
F-7-7-9b10b9-7----7-9-7-7-10-7------7-7-9b10b9-7----7-9-7-7-10-7-5-|
C--------------10--------------------------------------------------|
G------------------------------------------------------------------|
C------------------------------------------------------------------|

Interlude

Guitar 1   Clean!
D-------------------------------------------------------------------|
A-------------------------------------------------------------------|
F-------------------------------------------------------------------|
C-0-0-0-0-0-0-0-0--3-3-3-3-3-3-3-3--8-8-8-8-8-8-8-8-8-8-8-8-8-8-8-8-|
G-0-0-0-0-0-0-0-0--3-3-3-3-3-3-3-3--8-8-8-8-8-8-8-8-8-8-8-8-8-8-8-8-|
C-0-0-0-0-0-0-0-0--3-3-3-3-3-3-3-3--8-8-8-8-8-8-8-8-8-8-8-8-8-8-8-8-|

Guitar 2
D------------------------------------------------------------------|
A------------------------------8~----------------------------------|
F-7-7-9b10b9-7----7-9-7-7-10-7------7-7-9b10b9-7----7-9-7-7-10-7-5-|
C--------------10--------------------------------------------------|
G------------------------------------------------------------------|
C------------------------------------------------------------------|

Interlude 2 (Like the Chorus)

Guitar 1
D-------------------------------------------------------------------|
A-------------------------------------------------------------------|
F-------------------------------------------------------------------|
C-0-0-0-0-0-0-0-0--3-3-3-3-3-3-3-3--8-8-8-8-8-8-8-8-8-8-8-8-8-8-8-8-|
G-0-0-0-0-0-0-0-0--3-3-3-3-3-3-3-3--8-8-8-8-8-8-8-8-8-8-8-8-8-8-8-8-|
C-0-0-0-0-0-0-0-0--3-3-3-3-3-3-3-3--8-8-8-8-8-8-8-8-8-8-8-8-8-8-8-8-|

Guitar 2
D------------------------------------------------------------------|
A------------------------------8~----------------------------------|
F-7-7-9b10b9-7----7-9-7-7-10-7------7-7-9b10b9-7----7-9-7-7-10-7-5-|
C--------------10--------------------------------------------------|
G------------------------------------------------------------------|
C------------------------------------------------------------------|

Chorus 2

Guitar 1
D-------------------------------------------------------------------|
A-------------------------------------------------------------------|
F-------------------------------------------------------------------|
C-0-0-0-0-0-0-0-0--3-3-3-3-3-3-3-3--8-8-8-8-8-8-8-8-8-8-8-8-8-8-8-8-|
G-0-0-0-0-0-0-0-0--3-3-3-3-3-3-3-3--8-8-8-8-8-8-8-8-8-8-8-8-8-8-8-8-|
C-0-0-0-0-0-0-0-0--3-3-3-3-3-3-3-3--8-8-8-8-8-8-8-8-8-8-8-8-8-8-8-8-|

Guitar 2
D------------------------------------------------------------------|
A------------------------------8~----------------------------------|
F-7-7-9b10b9-7----7-9-7-7-10-7------7-7-9b10b9-7----7-9-7-7-10-7-5-|
C--------------10--------------------------------------------------|
G------------------------------------------------------------------|
C------------------------------------------------------------------|

Outro

Guitar 1 & 2
D------------------------------------------------------------------|
A------------------------------------------------------------------|
F-------------------------------13------------------------------13-|
C-------------------------------x-------------------------------x--|
G-------------------------------11------------------------------11-|
C-0--2---3--0-0---0---0--0---0-----0--2---3--0-0---0---0--0---0----|

Guitar 1
D---------------------------------------------------------|
A---------------------------------------------------------|
F-------------------------------13------------------------|
C-------------------------------x-----------------0-0-0-0-|
G-------------------------------11----------------0-0-0-0-|
C-0--2---3--0-0---0---0--0---0-----0--2---3--0-0--0-0-0-0-|

Guitar 2
D---------------------------------------------------------|
A---------------------------------------------------------|
F-------------------------------13----------------7-7-7-7-|
C-------------------------------x-----------------7-7-7-7-|
G-------------------------------11----------------5-5-5-5-|
C-0--2---3--0-0---0---0--0---0-----0--2---3--0-0----------|

Tab Legend
h  -  hammer-on
p  -  pull-off
b  -  bend
r  -  return from bend
/  -  slide up
\  -  slide down
ps/-  pickslide up
ps\-  pickslide down
pm.-  palm mute
t  -  triple strum (just strum fast)
~  -  let ring

Ok, well I hope you enjoyed because this is one fun song to play on the guitar. Thanks
            
Submit corrections

comments powered by Disqus
↑ Back to top | Haste The Day Tabs for Haunting. Lyrics for acoustic guitar and electric guitar. Tablatures and chords are parodies/interpretations of the original songs. You may use it for private study, scholarship, research or language learning purposes only