» » »

Haunting Bass tabs (ver.1)

Artists:  A B C D E F G H I J K L M N O P Q R S T U V W X Y Z # 

Haunting Bass tabs (ver.1)

Haste The Day
Rating:
0/5 (0 votes)

Hard to play? Try these video lessons and learn fast.
                Haste The Day - Haunting


F-------------------------------------------------------------------------|
C-----------------------------------------------------------------~~~~~~~-|x2
G-----------------------------------------------------------------~~~~~~~-|
C-0~~-0~~-0~~~~~~~--2~~-2~~-2/3~~~~~~--8~~-8~~-8~~~~~~~--5~~-5~~-5~~~~~~~-|

F-------------------------------------------------------------------------|
C----------~~~~~~~-------------~~~~~~-----------~~~~~~~-----------~~~~~~~-|x2
G----------~~~~~~~-------------~~~~~~-----------~~~~~~~-----------~~~~~~~-|
C-0-0-0-0-0-0-0-0-2-2-2-2-2-2-2-2-8-8-8-8-8-8-8-8-5-5-5-5-5-5-5-5---------|

F-------------------------------------------------------------------------|
C----------~~~~~~~-------------~~~~~~-----------~~~~~~~-----------~~~~~~~-|
G----------~~~~~~~-------------~~~~~~-----------~~~~~~~-----------~~~~~~~-|
C-5-5-5-5-5-5-5-5---------------------------------------------------------|

F-------------------------------------------------------------------------|
C----------~~~~~~~-------------~~~~~~-----------~~~~~~~-----------~~~~~~~-|x2
G----------~~~~~~~-------------~~~~~~-----------~~~~4-4-4-4-4-4-4-4-~~~~~-|
C-8-8-8-8-8-8-8-8-8-8-8-8-8-8-8-8--5-5-5-5-5-5-5-5------------------------|

F-------------------------------------------------------------------------|
C----------~~~~~~~-------------~~~~~~-----------~~~~~~~-----------~~~~~~~-|x4
G----------~~~~~~~-------------~~~~~~-----------~~~~~~~-----------~~~~~~~-|
C-0-0-0-0-0-0-0-0--3-3-3-3-3-3-3-3--8-8-8-8-8-8-8-8-8-8-8-8-8-8-8-8-------|

F-------------------------------------------------------------------------|
C----------~~~~~~~-------------~~~~~~-----------~~~~~~~-----------~~~~~~~-|
G------------------------------11------------------------------11---------|
C-0--2---3--0-0---0---0--0---0----0--2---3--0-0---0---0--0---0------------|

F-------------------------------------------------------------------------|
C----------~~~~~~~-------------~~~~~~-----------~~~~~~~----------11-11~11-|
G------------------------------11-----------------------------------------|
C-0--2---3--0-0---0---0--0---0----0--2---3--0-0---0---0--0---0-----------00-|

F-------------------------------------------------------------------------|
C----------~~~~~~~-------------~~~~~~-----------~~~~~~~-----------~~~~~~~-|x2
G----------~~~~~~~-------------~~~~~~-----------~~~~4-4-4-4-4-4-4-4-~~~~~-|
C-8-8-8-8-8-8-8-8-8-8-8-8-8-8-8-8--5-5-5-5-5-5-5-5------------------------|

F-------------------------------------------------------------------------|
C----------~~~~~~~-------------~~~~~~-----------~~~~~~~-----------~~~~~~~-|x4
G----------~~~~~~~-------------~~~~~~-----------~~~~~~~-----------~~~~~~~-|
C-0-0-0-0-0-0-0-0--3-3-3-3-3-3-3-3--8-8-8-8-8-8-8-8-8-8-8-8-8-8-8-8-------|

wait two cycles

F-------------------------------------------------------------------------|
C----------~~~~~~~-------------~~~~~~-----------~~~~~~~-----------~~~~~~~-|x4
G----------~~~~~~~-------------~~~~~~-----------~~~~~~~-----------~~~~~~~-|
C-0-0-0-0-0-0-0-0--3-3-3-3-3-3-3-3--8-8-8-8-8-8-8-8-8-8-8-8-8-8-8-8-------|

F-------------------------------------------------------------------------|
C----------~~~~~~~-------------~~~~~~-----------~~~~~~~-----------~~~~~~~-|
G------------------------------11------------------------------11---------|
C-0--2---3--0-0---0---0--0---0----0--2---3--0-0---0---0--0---0------------|

F-------------------------------------------------------------------------|
C----------~~~~~~~-------------~~~~~~-----------~~~~~~~----------11-11~11-|
G------------------------------11-----------------------------------------|
C-0--2---3--0-0---0---0--0---0----0--2---3--0-0---0---0--0---0-----------0000-|
            
Hard to play? Try these video lessons and learn fast. | Correct




comments powered by Disqus
↑ Back to top | Tablatures and chords are parodies/interpretations of the original songs. You may use it for private study, scholarship, research or language learning purposes only