» » »

Harvey Danger, Carlotta Valdez Tabs (ver.1)

Artists:  A B C D E F G H I J K L M N O P Q R S T U V W X Y Z # 

Carlotta Valdez Tabs (ver.1)

Harvey Danger Tabs
 Rating:
4/5 (4 votes)
Carlotta Valdez lessons Tabs too difficult? Try these video lessons and learn fast
1
                -------------------------------------------------------------------------------
-------------------------------------------------------------------------------

Tuning: Standard


e||--+12------------|
B||--+12------------|
G||--+12------------|
D||-----------------|
A||-----------------|
E||-----------------|



Intro/Verse:

e|-0---0-0---0-0-0-|---0-0-0---0-0-0-|-0---0-0---0-0-0-|---0-0-0---0-0-0-|
B|-0---0-0---0-0-0-|---0-0-0---0-0-0-|-0---0-0---0-0-0-|---0-0-0---0-0-0-|
G|-6---6-6---6-6-8-|---8-8-8---8-8-8-|-3---3-3---3-3-1-|---1-1-1---1-1-1-|
D|-7---7-7---7-7-9-|---9-9-9---9-9-9-|-4---4-4---4-4-2-|---2-2-2---2-2-2-|
A|-7---7-7---7-7-9-|---9-9-9---9-9-9-|-4---4-4---4-4-2-|---2-2-2---2-2-2-|
E|-5---5-5---5-5-7-|---7-7-7---7-7-7-|-2---2-2---2-2-0-|---0-0-0---0-0-0-|


e|-0---0-0---0-0-0-|---0-0-0---0-0-0-|-0-----0-------0-|-------0---------|
B|-0---0-0---0-0-0-|---0-0-0---0-0-0-|-0---------0-----|---0-------0-----|
G|-6---6-6---6-6-4-|---4-4-4---4-4-4-|-3---3-------0---|-----0-------0---|
D|-7---7-7---7-7-5-|---5-5-5---5-5-5-|-4---4-----------|-----------------|
A|-7---7-7---7-7-5-|---5-5-5---5-5-5-|-4---4-----------|-----------------|
E|-5---5-5---5-5-3-|---3-3-3---3-3-3-|-2---2-----------|-----------------|



Chorus:

e|-----------------|-----------------|
B|-----------------|-----------------|
G|-3-----1-1-----6-|---6---6-6-8-8-8-|
D|-4-----2-2-----7-|---7---7-7-9-9-9-|
A|-4-----2-2-----7-|---7---7-7-9-9-9-|
E|-2-----0-0-----5-|---5---5-5-7-7-7-|



Solo:


e|-----------------------|-----------------|-----------------|-----------------|
B|-----------------------|-----------------|-----------------|-----------------|
G|-/11---11--------------|-------9-----9---|-------9---9-9-8-|-----------8-----|
D|----------11---11-11-9-|---9-9-----9---9-|-7---7-----------|---9-------------|
A|-----------------------|-----------------|-----------------|-------9---------|
E|-----------------------|-----------------|-----------------|-----------------|



Bridge:

e|-0---------------|-0---------------|-0---------------|-0---------------|
B|-0---------------|-0---------------|-0---------------|-0---------------|
G|-3---------------|-6---------------|-5---------------|-3---------------|
D|-4---------------|-7---------------|-6---------------|-4---------------|
A|-4---------------|-7---------------|-6---------------|-4---------------|
E|-2---------------|-5---------------|-4---------------|-2---------------|



End:

e|-----------------|
B|-----------------|
G|-3-------3-------|
D|-4-------4-------|
A|-4-------4-------|
E|-2-------2-------|

"YES!"



| /  slide up
| \  slide down
| h  hammer-on
| p  pull-off
| ~  vibrato
| +  harmonic
| x  Mute note
===============================================================================
            
Submit corrections

comments powered by Disqus
↑ Back to top | Harvey Danger Tabs for Carlotta Valdez. Lyrics for acoustic guitar and electric guitar. 1 Tablatures and chords are parodies/interpretations of the original songs. You may use it for private study, scholarship, research or language learning purposes only