» » »

Terminal Annex Tabs (ver.1)

Artists:  A B C D E F G H I J K L M N O P Q R S T U V W X Y Z # 

Terminal Annex Tabs (ver.1)

Harvey Danger
Rating:
0/5 (0 votes)

Tabs too difficult? Try these video lessons and learn fast.
                song - terminal annex
band - harvey danger

intro
e]---------------------------------|
b]---------------------------------|
g]---------------------------------|
d]---------------------------------|
a]---0---0---0-eh you get the idea-|
e]-5---5---5-----------------------|

play that until
e]------------------------------------------------|
b]------------------------------------------------|
g]-6-6-6--6-6-6-6-6-6-6-6-6-6-----------4-4-4-4-4-| x2 
d]-7-7-7--7-7-7-7-7-7-7-7-7-7-2-2-2-2-2-5-5-5-5-5-| 
a]-7-7-7--7-7-7-7-7-7-7-7-7-7-2-2-2-2-2-5-5-5-5-5-|
e]-5-5-5--5-5-5-5-5-5-5-5-5-5-0-0-0-0-0-3-3-3-3-3-|
   |_3_|

preverse
e]-0------|
b]--0-----|
g]---6----|
d]----7---|
a]-----7--|
e]------5-|

verse
pick randomly thru these chords
e]--0--|--0--|--0--|
b]--0--|--0--|--0--|
g]--6--|--0--|--4--|
d]--7--|--2--|--5--|
a]--7--|--2--|--5--|
e]--5--|--0--|--3--|

chorus
e]---------------------------------------------|
b]---------------------------------------------|
g]---------------------------------------------| x2
d]-7-7-x-x-x-7-7-7-7-7-7-4-4-4-4-4-5-5-5-5-5-5-|
a]-7-7-x-x-x-7-7-7-7-7-7-4-4-4-4-4-5-5-5-5-5-5-|
e]-5-5-x-x-x-5-5-5-5-5-5-2-2-2-2-2-3-3-3-3-3-3-|

e]---------------------------------------------|
b]---------------------------------------------|
g]-----------------------7-7-7-7-7-------------| x2
d]-7-7-7-7-7-7-7-7-7-7-7-7-7-7-7-7-5-5-5-5-5-5-|
a]-7-7-7-7-7-7-7-7-7-7-7-5-5-5-5-5-5-5-5-5-5-5-|
e]-5-5-5-5-5-5-5-5-5-5-5-----------3-3-3-3-3-3-|

the second part of the chorus also goes over the bass solo
bridge thing
            
Tabs too difficult? Try these video lessons and learn fast.




comments powered by Disqus
↑ Back to top | Tablatures and chords are parodies/interpretations of the original songs. You may use it for private study, scholarship, research or language learning purposes only