» » »

Harry Chapin, Cat's In The Cradle Bass tabs (ver.1)

Artists:  A B C D E F G H I J K L M N O P Q R S T U V W X Y Z # 

Cat's In The Cradle Bass tabs (ver.1)

Harry Chapin Tabs
 Rating:
4/5 (4 votes)
Cat's In The Cradle lessons Tabs too difficult? Try these video lessons and learn fast
1
                intro
g-------------------------------------------------------------------------|
d-----------------------------------6-------------------------------------|
a---6h-8--6h-8-----86---------------6---8---------------------------------|
e-1-----------1-------87641-----------------------------------------------|
no bass in first verse

pre chours
g-------------------------------------------------------------------------|
d-------------------------------------------------------------------------|
a-65-31-------------------------------------------------------------------|
e-------4-3-1---4-3-1-----------------------------------------------------|

chours
g--------------------------------------------------------------------------|
d--------------------------------------------------------------------------|
a-----------6-6-6-6-6-------------------------------6-6-6-6-6--------------|
e-1-1-1-1-1-----------4-4-4-4-4-6-6-6-6-6-1-1-1-1-1-----------4-3-1--4-3-1-|

verse2
g-------------------------------------------------------------------------|
d-------------------------------------------------------------------------|
a-------------------------------------------------------------------------|
e-1-1-4-4-6-6-1-----------------------------------------------------------|

end
g-------------------------------------------------------------------------|
d-------------------------------------------------------------------------|
a--6-8----6-8-------------------------------------------------------------|
e-1-----1-----------------------------------------------------------------|
            
Submit corrections

comments powered by Disqus
↑ Back to top | Harry Chapin Bass for Cat's In The Cradle. Lyrics for acoustic guitar and electric guitar. 1 Tablatures and chords are parodies/interpretations of the original songs. You may use it for private study, scholarship, research or language learning purposes only