» » »

Harris Emmylou, Prayer In Open D Tabs (ver.2)

Artists:  A B C D E F G H I J K L M N O P Q R S T U V W X Y Z # 

Prayer In Open D Tabs (ver.2)

Harris Emmylou Tabs
Rating:
0/5 (0 votes)
Hard to play? Try these video lessons and learn fast.
                I'm looking for a TAB for Emmylou Harris's Prayer in Open D.  I'd appreciate

I asked for this about 2 months ago and didn't find any offers.  Tried my
best to pick it out and it was "passable" but not perfect.  For anyone who
wants to give it a try (and improve it), here goes:

Tune to Open D (of course)
h=hammer on
p=pull off
s=slide
Meter is not correct; this is my first tab and I borrowed the template from
someone else's tab.

INTRO and BRIDGE

D ----------------|----------------|----------------|----------------|
A ----------------|----------------|----------------|----------------|
D -0---------0-2h-|----------2s4-4-|-4---4---4---4--|---------0------|
F# ---0--0--------|----------------|----------------|-5----5------5--|
A ----0-----------|0-----0---0---0-|---0---0---0---0|----------------|
D ----0---0--0-2h-|--2-----2-2s4-4-|---4---4---4---4|---5---5---5--5-|


D ----------------|----------------|----------------|----------------|
A ----------------|----------------|----------------|----------------|
D -0---0--0--0----|-0---------0-2h-|----------2s4-4-|-4---4---4---4--|
F# 5p0-0--0-------|----0r-0--------|----------------|----------------|
A --------------0-|----0r----------|0-----0---0---0-|---0---0---0---0|
D -5p0-0--0---0--0|----0r--0--0-2h-|--2-----2-2s4-4-|---4---4---4---4|


D ----------------|------------------|----------------|----------------|
A ----------------|-------0h2--------|----------------|----------------|
D --2------2---2--|-0--------0-0h2-2-|0---------------|----------------|
F# ---------------|------------------|0---------------|----------------|
A ----0-0--0---0-4|--0-0-------------|----------------|----------------|
D ----2--2h4-2-0--|--0--0------------|0---------------|----------------|


Chords I used were (picking; pattern--a style all my own):

						D																	G																	A
D ----------------|----------------|----------------|
A ----------------|-----2----------|------0---------|
D ----0-----------|-----0----------|------2---------|
F# ---0-----------|-----1----------|------3---------|
A-----0-----------|-----2----------|------0---------|
D-----0-----------|-----0----------|------2---------|
            

comments powered by Disqus
↑ Back to top | Harris Emmylou Tabs for Prayer In Open D. Lyrics for acoustic guitar and electric guitar. Tablatures and chords are parodies/interpretations of the original songs. You may use it for private study, scholarship, research or language learning purposes only