» » »

Sexual Healing Tabs (ver.1)

Artists:  A B C D E F G H I J K L M N O P Q R S T U V W X Y Z # 

Sexual Healing Tabs (ver.1)

Harper Ben
Rating:
0/5 (0 votes)

Hard to play? Try these video lessons and learn fast.
                ben harpers sexual healing

e-------------------------------------------
b-------------------------------------------
g-------------------------------------------
d-------------------------------------------
a---------1----3----5----3----1-------------
E--1--3-------------------------------------


this might be easier 


e-------------------------------------------
b-------------------------------------------
g-------------------------------------------
d----------------------0--------------------
a------------1----3---------3----1----------
E--1--3-------------------------------------

that is it for the bass line through the song.
 this is accurate just not the whole song. 
hey this is my first tab dont get mad.
            
Hard to play? Try these video lessons and learn fast. | Correct




comments powered by Disqus
↑ Back to top | Tablatures and chords are parodies/interpretations of the original songs. You may use it for private study, scholarship, research or language learning purposes only