» » »

Harper Ben, Please Bleed Tabs (ver.1)

Artists:  A B C D E F G H I J K L M N O P Q R S T U V W X Y Z # 

Please Bleed Tabs (ver.1)

Harper Ben Tabs
 Rating:
4/5 (4 votes)
Please Bleed lessons Tabs too difficult? Try these video lessons and learn fast
                PROPS GO TO: Regie

BEN HARPER
Please Bleed (Burn to Shine album)

Intro: This riff is also repeated through the verses.

GUITAR
e|-----------------------------
B|-----------------------------
G|-----------------------------     
D|---0----------------0-0h2-0--
A|----3---3-2---2-1------------
D|-0----3-----5-----3----------
                                      X2
BASS                     
G|-----------------------------
D|-----------------------------
A|-----------------------------
D|-0----3-----5-----8----------

Verse 1: (intro riff) End on G 

Make me feel like a beggar
Make me feel like a thief
Make me feel like a battle
That can not end in peace

Make me feel like running
As if I’ve lost my nerve
Make me feel like crying 
Tears I don’t deserve
  
Chorus: Power chords with thick distortion

       D
Please bleed
     Bb               A D
So I know that you are real
     Bb               A D
So I know that you can feel
     Bb               A   C   (G|--10-9-|)
The damage that you’ve done
   D               G  Bb   (harmonic 7th fret top e string)
Oh who have I become?
D            G  Bb
To myself I am numb
 G    Bb
I am numb
 G    Bb     C    (G|--10-9-|)
I am numb


Verse 2:

Is this really living?
Sometimes it’s hard to tell
Or is this just the kinder 
Gentler hell 

Turn out the lights
And let me stare into your soul
I was born and bled 
For you to hold

Chorus

Guitar Solo: (Bass plays notes above)

   D                   Bb      D                   Bb       D
e|----------------------------------------------------------------
B|----------------------------------------------------------------
G|-1b(2)-1b(2)p0---0---------0-1b(2)-1b(2)-1b(2)p0-0------0-1b(2)-
D|---------------3---3-0—0-3--------------------------0-3---------
A|----------------------------------------------------------------
E|----------------------------------------------------------------

               Bb        C (fiddly bass)      D          Bb
-------------------------------------------3-5b(6)-1-3-1-3--------
-1b(2)p0---0---------------------------2-5------------------2-5---
---------3---3-0--0-2-3-2p0-0-2-2-3-2-----------------------------

 D         Bb      D          Bb      C
--------------------------------------3333-----------------------|
-3-3-3---3-3-----3-3-3-3-3-3-3-33333333333-------3-----/6--------|
-------5-----2-5---------------------------5-2h5-----------------|

Verse 3:

Never said thank you
Never said please
Never gave
A reason to believe

So as it stands 
I’ll be waiting on my knees
Good lovers
Make great enemies


Chorus X2

End on this chord: Bb

e|----|
B|----|
G|----|
D|-0--|
A|-8--|
D|-8--|
            
Submit corrections

comments powered by Disqus
↑ Back to top | Harper Ben Tabs for Please Bleed. Lyrics for acoustic guitar and electric guitar. Tablatures and chords are parodies/interpretations of the original songs. You may use it for private study, scholarship, research or language learning purposes only