» » »

Forever Tabs (ver.2)

Artists:  A B C D E F G H I J K L M N O P Q R S T U V W X Y Z # 

Forever Tabs (ver.2)

Harper Ben
Rating:
0/5 (0 votes)

Hard to play? Try these video lessons and learn fast.
                FOREVER 
                                  =======
                               by Ben Harper

Kudos to all of you who know of and appreciate this artist's music. 
This is a good one off the Welcome to the Cruel World album.  It is
played slowly and in standard tuning.  If you listen to the song, you
will notice he plays will slaps/mutes (whatever you call it), which I
didn't write in, but occur in the obvious places.

-*-                                 h=hammer
-*-                                 p=pull off
-*-
-*-  = knock on body of guitar
-*-
-*-

(intro)
E---------------------------------------------------------*-*-----|
B--0h1---1------0--0----0h1p0-----------0h1---1-----3-----*-*-----|
G--0-----2------0--0---2-----2----------0-----2----0------*-*-----|
D--2-----3------------2-------2---------2-----3---0-------*-*-----|
A---------------------------------------------------------*-*-----|
E------------3-----------------------------------3--------*-*-----|

(verse)
E-----------------------------------------------------------------|
B--0----0h1------------1---------0--0-----------0h1p0-------------|
G--0----0--------------2---------0--0----------2-----2------------|
D--0----2--------------3----------------------2-------2-----------|
A-----------------------------------------------------------------|
E--^----^--------------^------3--^------------^-------------------|
  not talkin' about a year,  no not three or four  . . . 

(refrain)
E-----------------------------------------------------------------|
B-------0-1--------3----------0h1p0-------------------------------|
G-------0-0--------0---------2-----2---0--------------------------|
D-------0-2--------0--------2-------2-----------------------------|
A-----------------------------------------------------------------|
E-----------------------------------------------------------------|

(last part of refrain)
E-----------------------------------------------------------------|
B-------0-1--------3-----------0--1--1--0-------------------------|
G-------0-0--------0---0-------0--2--2--0--(back-to-verse)--------|
D-------0-2--------0-----------0--2--3--0-------------------------|
A-----------------------------------------------------------------|
E-------------------------3---------------------------------------|

This is close enough.  There are slight variations throughout the song,
but stays the same for the most part.  Didn't have time for the lyrics,
but I think they're in the album cover.  Enjoy.
            
Hard to play? Try these video lessons and learn fast. | Correct




comments powered by Disqus
↑ Back to top | Tablatures and chords are parodies/interpretations of the original songs. You may use it for private study, scholarship, research or language learning purposes only