» » »

Harmonium, Histoire Sans Paroles Tabs (ver.3)

Artists:  A B C D E F G H I J K L M N O P Q R S T U V W X Y Z # 

Histoire Sans Paroles Tabs (ver.3)

Harmonium Tabs
 Rating:
4/5 (4 votes)
Histoire Sans Paroles lessons Tabs too difficult? Try these video lessons and learn fast
                Harmonium - Histoire sans paroles
Partition: Patrick Chamberland

E||--------2-----------------|--------3-----------------|
B||-----------------3--------|-----------------3--------|
G||-----2--------2--------2--|-----0--------0--------0--|
D||--0--------0--------0-----|-----------2--------2-----|
A||--------------------------|--------------------------|
E||--------------------------|--0-----------------------|


                                                      
--------2-----------2-----|--------2-----------2-----|
--------------------------|-----0-----0-----------2--|
-----------------3--------|-----------------3--------|
-----4-----4--2--------2--|--0-----------------------|
--------------------------|--------------4-----------|
--2-----------------------|--------------------------|


                                                      
--------2-----------2-----|--------2-----------2-----|
-----------3-----------3--|-----------3-----------3--|
-----------------4--------|-----------------4--------|
-----4--------4-----------|-----4--------4-----------|
--2-----------------------|--2-----------------------|
--------------------------|--------------------------|


                                                      
--------2-----------0-----|--------------------------|
-----------0-----------0--|--------3--0--------2--0--|
--------------------------|--------------------------|
-----2-----------2--------|-----2-----------2--------|
--------------2-----------|--2-----------2-----------|
--0-----------------------|--------------------------|


                                                      
--------2-----------0-----|--------------------0-----|
-----------2-----------2--|--------3--------------2--|
--------------------------|-----------2--------------|
-----2-----------2--------|-----2-----------2--------|
--0-----------0-----------|--0-----------0-----------|
--------------------------|--------------------------|


                                                     
--------2-----------0-----|--------2----------2-----|
-----------3-----------0--|-----------3----------3--|
-----2-----------0--------|-------------------------|
--0-----------------------|-----4----------4--------|
--------------4-----------|--2----------------------|
--------------------------|-------------------------|


                                                      
--------0-----------2-----|--------3-----------0-----|
-----------0-----------0--|-----------0-----------0--|
--------------------------|--------------------------|
-----2-----------2--------|-----2-----------2--------|
--------------2-----------|--2-----------2-----------|
--0-----------------------|--------------------------|


                                                      
--------0-----------2-----|--------3-----------0-----|
-----------2-----------2--|-----------2-----------2--|
--------------------------|--------------------------|
-----2-----------2--------|-----2-----------2--------|
--0-----------0-----------|--0-----------0-----------|
--------------------------|--------------------------|


                                                      
--------2-----------3-----|--------2-----------2-----|
-----------3-----------3--|-----------3--------------|
-----2-----------2--------|-----2-----------2--------|
--0-----------0-----------|--0-----------0-----------|
--------------------------|-----------------------0--|
--------------------------|--------------------------|


                                                      
--------3-----------3-----|--------3-----------3-----|
-----------0-----------0--|-----------0--------------|
--------------------------|--------------------------|
-----0-----------0--------|-----0-----------0--------|
--------------2-----------|--------------2-----------|
--3-----------------------|--3--------------------3--|


                                                      
--------2-----------2-----|--------2-----------2-----|
--------------------------|-----0-----0-----------2--|
-----------------3--------|-----------------3--------|
-----4-----4--2--------2--|--0-----------------------|
--------------------------|--------------4-----------|
--2-----------------------|--------------------------|


                                                      
--------2-----------2-----|--------2-----------2-----|
-----------3-----------3--|-----------3-----------3--|
-----------------4--------|-----------------4--------|
-----4--------4-----------|-----4--------4-----------|
--2-----------------------|--2-----------------------|
--------------------------|--------------------------|


                                                      
--------2-----------0-----|--------------------------|
-----------0-----------0--|--------3--0--------2--0--|
--------------------------|--------------------------|
-----2-----------2--------|-----2-----------2--------|
--------------2-----------|--2-----------2-----------|
--0-----------------------|--------------------------|


                                                      
--------2-----------0-----|--------------------0-----|
-----------2-----------2--|--------3--------------2--|
--------------------------|-----------2--------------|
-----2-----------2--------|-----2-----------2--------|
--0-----------0-----------|--0-----------0-----------|
--------------------------|--------------------------|


                                                     
--------2-----------0-----|--------2----------2-----|
-----------3-----------0--|-----------3----------3--|
-----2-----------0--------|-------------------------|
--0-----------------------|-----4----------4--------|
--------------4-----------|--2----------------------|
--------------------------|-------------------------|


                                                      
--------0-----------2-----|--------3-----------0-----|
-----------0-----------0--|-----------0-----------0--|
--------------------------|--------------------------|
-----2-----------2--------|-----2-----------2--------|
--------------2-----------|--2-----------2-----------|
--0-----------------------|--------------------------|


                                                      
--------0-----------2-----|--------3-----------0-----|
-----------2-----------2--|-----------2-----------2--|
--------------------------|--------------------------|
-----2-----------2--------|-----2-----------2--------|
--0-----------0-----------|--0-----------0-----------|
--------------------------|--------------------------|


                                                      
--------2-----------3-----|--------2-----------2-----|
-----------3-----------3--|-----------3--------------|
-----2-----------2--------|-----2-----------2--------|
--0-----------0-----------|--0-----------0-----------|
--------------------------|-----------------------0--|
--------------------------|--------------------------|


                                                      
--------3-----------3-----|--------3-----------3-----|
-----------0-----------0--|-----------0--------------|
--------------------------|--------------------------|
-----0-----------0--------|-----0-----------0--------|
--------------2-----------|--------------2-----------|
--3-----------------------|--3--------------------3--|


                                                      
--------2-----------2-----|--------2-----------2-----|
--------------------------|-----0-----0-----------2--|
-----------------3--------|-----------------3--------|
-----4-----4--2--------2--|--0-----------------------|
--------------------------|--------------4-----------|
--2-----------------------|--------------------------|


                                                      
--------2-----------2-----|--------2-----------2-----|
-----------3-----------3--|-----------3-----------3--|
-----------------4--------|-----------------4--------|
-----4--------4-----------|-----4--------4-----------|
--2-----------------------|--2-----------------------|
--------------------------|--------------------------|


                                                      
--------2-----------0-----|--------------------------|
-----------0-----------0--|--------3--0--------2--0--|
--------------------------|--------------------------|
-----2-----------2--------|-----2-----------2--------|
--------------2-----------|--2-----------2-----------|
--0-----------------------|--------------------------|


                                                      
--------2-----------0-----|--------------------0-----|
-----------2-----------2--|--------3--------------2--|
--------------------------|-----------2--------------|
-----2-----------2--------|-----2-----------2--------|
--0-----------0-----------|--0-----------0-----------|
--------------------------|--------------------------|


                                                     
--------2-----------0-----|--------2----------2-----|
-----------3-----------0--|-----------3----------3--|
-----2-----------0--------|-------------------------|
--0-----------------------|-----4----------4--------|
--------------4-----------|--2----------------------|
--------------------------|-------------------------|


                                                      
--------0-----------2-----|--------3-----------0-----|
-----------0-----------0--|-----------0-----------0--|
--------------------------|--------------------------|
-----2-----------2--------|-----2-----------2--------|
--------------2-----------|--2-----------2-----------|
--0-----------------------|--------------------------|


                                                      
--------5--2-----2--5--2--|--------5--2-----2--5--2--|
--------------------------|--------------------------|
--------------------------|--------------------------|
-----4--------4-----------|-----4--------4-----------|
--2-----------------------|--2-----------------------|
--------------------------|--------------------------|


                                                      
-----0--3--0-----0--3--0--|-----0--3--0-----0--3--0--|
--------------------------|--------------------------|
--------------------------|--------------------------|
--------------------------|--------------------------|
--3-----------------------|--3-----------------------|
--------------3-----------|--------------3-----------|


                                                     
--------2-----------2-----|--------2-----------2----|
-----------0-----------0--|-----------0-------------|
--------------------------|-------------------------|
-----0-----------0--------|-----0-----------0-------|
--------------2-----------|--------------2----------|
--3-----------------------|--3----------------------|


                                                      
--------0-----------0-----|--------2-----------2-----|
-----------1-----------1--|-----------1-----------1--|
--------------------------|-----2-----------2--------|
-----4-----------4--------|--1-----------1-----------|
--0-----------0-----------|--------------------------|
--------------------------|--------------------------|


                                                      
--------2-----------0-----|--------2-----------0-----|
-----------0-----------0--|-----------0-----------0--|
--------------------------|--------------------------|
-----2-----------2--------|-----2-----------2--------|
--------------2-----------|--------------2-----------|
--0-----------------------|--0-----------------------|


                                                  
--------------------1-----|-------2----5----8----|
-----------1-----------1--|--4----1----4----7----|
--------2--------2--------|--2----2----5----8----|
-----3--------3--------1--|--4----1----4----7----|
--------------------------|--2-------------------|
--1-----------------------|----------------------|


                                                                
-----------------2------|------------------|------------------||
--------------0---------|------------------|------------------||
-----------0------------|------------------|------------------||
--------2---------------|------------------|------------------||
-----2------------------|------------------|------------------||
--0---------------------|------------------|------------------||
            
Submit corrections

comments powered by Disqus
↑ Back to top | Harmonium Tabs for Histoire Sans Paroles. Lyrics for acoustic guitar and electric guitar. Tablatures and chords are parodies/interpretations of the original songs. You may use it for private study, scholarship, research or language learning purposes only