» » »

Harlem, Gay Human Bones Tabs (ver.1)

Artists:  A B C D E F G H I J K L M N O P Q R S T U V W X Y Z # 

Gay Human Bones Tabs (ver.1)

Harlem Tabs
Rating:
3/5 (1 vote)
Gay Human Bones lessons Tabs too difficult? Try these video lessons and learn fast
                

Tuning:standard


Intro
e|------------------------------------------------|
B|------------------------------------------------|
G|-------------2-0--------------------------------| x2
D|-----------------3-0-----------3----------------|
A|-----3-3-5-5-------------3-3-5---5-3------------|
E|-1-1-----------------1-1-------------5-3-1-1----|

Verse
e|-1---------5---5---------------|
B|-1----5----6---5---------------|
G|-2----5----7---6---------------|
D|-3----5----7---7---------------|
A|-3----3----5---7---------------|
E|-1-------------5---------------|
   F    C   Dm   A

Chorus
e|-6----3----1---5-------------------|
B|-6----3----1---5-------------------|
G|-7----4----2---4-------------------|
D|-8----5----3---6-------------------|
A|-8----5----3---6-------------------|
E|-6----3----1---5-------------------|
   Bb   G    F   A

Simple as that. Enjoy!


************************************

| /   slide up
| \   slide down
| h   hammer-on
| p   pull-off
| ~   vibrato
| +   harmonic
| x   Mute note
| b   Bend
| pb  Pre-bend
| br  Bend release
| pbr Pre-bend release
| brb Bend release bend

************************************
            
Submit corrections

comments powered by Disqus
↑ Back to top | Harlem Tabs for Gay Human Bones. Lyrics for acoustic guitar and electric guitar. Tablatures and chords are parodies/interpretations of the original songs. You may use it for private study, scholarship, research or language learning purposes only