» » »

Harem Scarem, Something To Say Tabs (ver.6)

Artists:  A B C D E F G H I J K L M N O P Q R S T U V W X Y Z # 

Something To Say Tabs (ver.6)

Harem Scarem Tabs
Rating:
4/5 (4 votes)
Something To Say lessons Tabs too difficult? Try these video lessons and learn fast
                Somethin’ 2 say

Harem Scarem

Intro 

|------5p2---|------0--------3-|----3/5--5/3-|---2---5p2---|------0--------3---|
|-3-------3--|-------0-------3-|----3/5--5/3-|---3------3--|-------0-------3-2-|
|-2--2-----2-|----4---4--------|-------------|---2--2----2-|----4---4--------2-|
|-0-0--------|-----2---2-------|-0-----------|-0---0-------|-----2---2-------2-|
|------------|-2/4-------------|-------------|-------------|-2/4---------------|
|------------|------------2-3--|-------------|-------------|-----------2-3-----|
 
|------10p9--------|
|----10----10------|
|-6/9--------9-6-7-|
|------------------|
|------------------|
|------------------|
 
Verse
|---------------|-2---2---|-2---2---|-7---7---6---6---|
|---3---3---3---|-3---3---|-2---2---|-8---8---5---5---|
|---2---2---2---|---------|---------|---7---7---0---0-|
|-0---0---0---0-|---0---0-|---0---0-|-----------------|
|---------------|---------|---------|-----------------|
|---------------|---------|---------|-----------------|
 
Pre chorus
    |--- Lead I --|
|-----2----|----0------|-------|-----------|-------2--|----0-0-|--------|---|-10p9--------|
|----3-3---|----0-0----|---3---|--3-3----0-|----3---3-|----0-0-|----3---|-2-|-----10------|
|---4---4--|---2---2---|--0-0--|--0-0----2-|---4-4----|---2-2--|---0-0--|-2-|-------9-6-7-|
|--4-----4-|--2-----2--|-----0-|--------2--|--4---4---|--2-----|--0---0-|-2-|-------------|
|-2--------|-0---------|-------|-----2-0---|-2--------|-0------|--------|-0-|-------------|
|----------|---------0-|-3-----|-3---------|----------|--------|-3------|---|-------------|

Chorus
 
|----2-2-2-0-|----0--0-|---------|---------|----0----|---------|-----------|--------|
|---3--3-3-3-|---0-0---|----3—-2-|----3----|-----0---|---0--2--|--insert---|--2-2-3-|
|--2---------|---2--2--|---4-----|---0-----|---0--0--|---------|---Lead I--|--3-2-4-|
|-0----------|--2------|--4---2--|--0------|--2----2-|--0--2-0-|----here---|-0------|
|------------|-0-------|-2---0---|---------|---------|----0----|-----------|------2-|
|------------|---------|---------|-3---3-2-|-0-------|-3-------|-----------|--------|
 

|---2----|----2----|----3----|----2----|----3----|---0--------|
|----3---|-----3---|-----3---|-----3---|-----3---|---3--------|
|--4--4--|---4--4--|---5--5--|---4--4--|---5--5--|--2----0----|
|-4----4-|--4----4-|--5----5-|--4----4-|--5----5-|-0----0-----|
|--------|-2-------|-3-------|-2-------|-3-------|----------2-|
|--------|---------|---------|---------|---------|-----3---3--|
            

comments powered by Disqus
↑ Back to top | Harem Scarem Tabs for Something To Say. Lyrics for acoustic guitar and electric guitar. Tablatures and chords are parodies/interpretations of the original songs. You may use it for private study, scholarship, research or language learning purposes only