>
 >
Something To Say 1

Something To Say 1 Guitar Tabs

Harem Scarem - Something To Say 1 chords, tabs, tablatures, lyrics

Guitar lessons | Add/correct | Request | Top 50 tabs Artists:  A B C D E F G H I J K L M N O P Q R S T U V W X Y Z 0-9

Something To Say 1 Guitar Tabs – Harem Scarem

CD, Sheet music, Poster

Do you like Something To Say 1? Share with your friends now
ChordsChords v2TabsTabs v2Tabs v3Tabs v4Tabs v5Tabs v6Ukulele
+++++++++++++++++++++++++++++++++++++++++++++++++++++++
+Artist: Harem Scarem                                 +
+Song: Something to say                               +
+September 12, 2004                                   +
+Taga Bicol ini o                                     + 
+++++++++++++++++++++++++++++++++++++++++++++++++++++++

This is only the Intro: kung gus2 nyo makuha yung add lead mag-email lang kau skin ok?(".)?

Intro:
E|---------(12)---------------------------------------------|
B|--------------(12)----------------------------------------|
G|-------------------12-------------------------------------|
D|------------------------(12)------------------------------|
A|----------------------------------------------------------|
E|-----0----------------------------------------------------|
                                                                
E|--------------------------------------------(12)------0---|
B|----------------------------------------8-------------0---|
G|---------------------------------7h9------------------0---|
D|-------------------------2/9------------------------------|
A|-----------------2h5--------------------------------------|
E|-----0h3h5------------------------------------------------|

E|---3--(3)---5---2---3-----------2-------------------------|
B|------------------------------------3---5---4-------------|
G|---------------------0---2--------------------------------|
D|---2--(2)---4---1---2-----------0---2---3---2-------------|
A|----------------------------------------------------------|
E|----------------------------------------------------------|

E|--3---5---2---3---5---2---5h7p5-----------------5h7p5-----|
B|--------------------------7----------8---7---7----------8-|
G|----------------------------------------------------------|
D|--2---4---1---2---4---0-----------------------------------|
A|----------------------------------------------------------|
E|----------------------------------------------------------|

E|----------------------------------------------------------|
B|-----------------------------3---5-------4----------------|
G|-------------------------------------0---4----------------|
D|-----2---4---1---2---4---0--------------------------------|
A|-----------------------------2---3-------2----------------|
E|----------------------------------------------------------|

E|-----0---3---0-------0---3---0----------------------------|
B|-----1-----------1---3-----------3------------------------|
G|-----0---------------2------------------------------------|
D|-----2---------------0------------------------------------|
A|-----3---------------0------------------------------------|
E|-----3---------------2------------------------------------|


E|-----0-----------------------------------------------(12)----|
B|--------------0----------------------------------------------|
G|---------(12)----------0-------------------------(12)--------|
D|------------------(14)----------7----------------------------|
A|---------------------------(14)------------------------------|
E|------------------------------------(12)------0--------------|


E|------------------------------------------------------|
B|--------8-----------8-----------8-----------8---------|
G|-----------9-----------9-----------9-----------9------|
D|--------------9-----------9-----------9-----------9---|
A|-----7-----------7-----------7-----------6------------|
E|------------------------------------------------------|

E|------------------------------------------------------|
B|--------8-----------8-----------8-----------8---------|
G|-----------9-----------9-----------9-----------9------|
D|--------------9-----------9-----------9-----------9---|
A|-----7-----------7-----------7-----------6------------|
E|------------------------------------------------------|

E|-------------------------------------------------------------|
B|------8-----------7-----------7-----------7--------5---------|
G|---------9---------------------------------------------------|
D|------------9-------9--7----------9-7--------9--7------7-5---|
A|---7-----------6-----------5-----------5-----------4---------|
E|-------------------------------------------------------------|

E|-------------------------------------------------------------|
B|--------5-----------5-----------5-----------7----------------|
G|-------------------------------------------------------------|
D|-----------7--5--------7--5--------7--5--------9--7----------|
A|-----3-----------2-----------3-----------6-------------------|
E|-------------------------------------------------------------|

E|-------------------------------------------------------------|
B|------8-----------7-----------7-----------7--------5---------|
G|---------9---------------------------------------------------|
D|------------9--------9--7--------9--7---------9--7----7--5---|
A|---7-----------6-----------5-----------5-----------4---------|
E|-------------------------------------------------------------|

E|-------------------------------------------------------------|
B|----------5-----------5--------------------------------------|
G|----------------------------------0--------------------------|
D|-------------7--5---------7--5-------------------------------|
A|-------3-----------2-----------0-----------------------------|
E|-------------------------------------0-----------------------|

E|--------------------------------------14---------------------|
B|--------12------13p12---------10-----------------------------|
G|--------------------------12------11-------------------------|
D|------------12--12------------12-----------------------------|
A|--------10---------------------------------------------------|
E|-------------------------------------------------------------|

E|-------------10p7-------------11-----------------------------|
B|---------8-----------8--7------------------------------------|
G|---------------------------8---------------------------------|
D|-------------------------------------------------------------|
A|---------7----7---------6------------------------------------|
E|-------------------------------------------------------------|


E|-------------------------------------------------------------|
B|-----------5-----------5-----------7--------------8----------|
G|--------------5-----------6-----------7----------------------|
D|-----------------5-----------7-----------7-------------------|
A|--------3-----------4-----------5--------------7--7----------|
E|--------------------------------------------/----------------|

E|-------------------------------------------------------------|
B|----------7---(7)---------8p7p5------------------------------|
G|-----------------(7)-----------------7(7)-------------------|
D|-------------------(7)---------------------------------------|
A|----------5---(7)--------------------------------------------|
E|-------------------------------------------------------------|

E|-------------------------------------------------------------|
B|------8-----------7-----------7-----------5------------------|
G|---------9-----------8-----------7-----------6---------------|
D|------------9-----------9-----------7-----------7------------|
A|---7-----------6-----------5-----------4---------------------|
E|-------------------------------------------------------------|

E|-------------------------------------------------------------|
B|------5-----------3-----------5-----------7------------------|
G|---------5-----------4-----------5-----------8---------------|
D|------------5-----------5-----------5-----------9------------|
A|---3-----------2-----------3-----------6---------------------|
E|-------------------------------------------------------------|

E|-------------------------------------------------------------|
B|------8-----------7-----------7-----------5------------------|
G|---------9-----------8-----------7-----------6---------------|
D|------------9-----------9-----------7-----------7------------|
A|---7-----------6-----------5-----------4---------------------|
E|-------------------------------------------------------------|

E|-------------------------------------------------------------|
B|------------5-----------3-----------1------------------------|
G|---------------5-----------4-----------2---------------------|
D|------------------5-----------5-----------4------------------|
A|---------3-----------2-----------0---------------------------|
E|---------------------------------------------3---------------|

E|---------------------------------14----|
B|---12------12p13--------10-------------|
G|--------------------12-------11--------|
D|-------12--12-----------12-------------|
A|---10----------------------------------|
E|---------------------------------------|

E|------10p7-------------11-----|
B|---8----------8--7------------|
G|--------------------8---------|
D|------------------------------|
A|---7---7---------6------------|
E|------------------------------|


E|----------------------------------------------------|
B|------5-----------5-----------7-----------7---------|
G|---------5-----------6-----------7-----------8------|
D|------------5-----------7-----------7-----------9---|
A|---3-----------4-----------5-----------6------------|
E|----------------------------------------------------|

E|----------------------------------------------------|
B|------5-----------5-----------7-----------7---------|
G|---------5-----------6-----------7-----------8------|
D|------------5-----------7-----------7-----------9---|
A|---3-----------4-----------5-----------6------------|
E|----------------------------------------------------|

E|----------------------------------------------------|
B|------5-----------5-----------7-----------7---------|
G|---------5-----------6-----------7-----------8------|
D|------------5-----------7-----------7-----------9---|
A|---3-----------4-----------5-----------6------------|
E|----------------------------------------------------|

E|---------------------------------------------------------------|
B|------8-----------10--------------12--------------13-----------|
G|---------9------------11--------------12--------------14-------|
D|------------9-------------12--------------12--------------16---|
A|---7-----------9--------------10--------------12---------------|
E|---------------------------------------------------------------|

E|-------------------------------------------------------------|
B|-------15--------------17--------------19----------20--15---|
G|-----------16--------------17--------------19-----------14---|
D|---------------17--------------17--------------19------------|
A|---14--------------15--------------17------------------------|
E|-------------------------------------------------------------|

E|----------------------------------------------------------------|
B|------8--10-8p0------------------------------------------------|
G|---/--7-------------7p0---------------0-------------------------|
D|---/-----------------------0h2h4---------0h2p0------------------|
A|----------------------------------------------------0h2p0-------|
E|----------------------------------------------------------------|

E|-------3------------------------------|
B|-------3------------------------------|
G|-------0------------------------------|
D|-------0------------------------------|
A|-------2------------------------------|
E|---3---3------------------------------|
 
Illustration:
( ) = harmonic
/   = slide
p   = pull off
h   = hammer


comment? is free ok?

+++++++++++++++++++++++++++++++++++++++++++++++++++++++++++++++++++++
pki rate





Comments


Popular Harem Scarem tabs & chords
Hard To Love Chords
Honestly Chords
Honestly 1 Chords
Something To Say 1 Chords
Honestly (Acoustic) Tabs
Honestly (Acoustic) 2 Tabs
Honestlyken Tabs
Something To Say Tabs
Something To Say 5 Tabs
Something To Say Intro Tabs


Song lyrics



↑ Back to top | Tablatures and chords are parodies/interpretations of the original songs. You may use it for private study, scholarship, research or language learning purposes only
© 2014 AZChords.com Contact us | Privacy policy | DMCA | Add/correct tabs | Request tabs | Top 50 tabs