>
 >
Honestly 1

Honestly 1 Guitar Tabs

Harem Scarem - Honestly 1 chords, tabs, tablatures, lyrics

Guitar lessons | Add/correct | Request | Top 50 tabs Artists:  A B C D E F G H I J K L M N O P Q R S T U V W X Y Z 0-9

Honestly 1 Guitar Tabs – Harem Scarem

CD, Sheet music, Poster

Do you like Honestly 1? Share with your friends now
ChordsChords v2TabsTabs v2Tabs v3Tabs v4Ukulele
Song title:Honestly by Harem Scarem(Acoustic Version)

This is my first tablature. .
its a GUARANTIED 98% to pro's. 100% to those who's like me. i spent 4 hours doing this(i 
it will take a day).. will you rate for me? i believe i deserve it..

Intro:
e|------------------------|-----------------------7-|---4-2-0-2--------0-|
b|---------------------0--|----------------5p4----5-|------------------0-|
g|--------------------1--1|----------------4----4---|-2/4-2-1-2------2---|
d|------------4---4-------|-------------------------|---------------2----|
a|--1/2-----2---2---------|------2-4/6-4------------|--------------0-----|
e|-------0----------------|-0-2/4-------------------|--------------------|

|-----0--------7-----5----------4-----2--------------|
|-------4------9-9---7(or5)-7---5-5---4-4-----0------|
|-2/4-----4-------------------------------------1----|
|-------------------------------------------------2--|
|----------------------------------------------------|
|------------0-----0----------0-----0-----2/4-------0|

Verse1:
    E
e|------0-------|------------|--------------|----------------|------0-------|
b|--------0-----|------------|---5p4--------|--5-------------|--------0-----|
g|----------1---|------------|---4---4------|--4-----4-------|----2-----2---|
d|---2-------2--|------------|---------6----|6----4/6---6-4--|--2---------2-|
a|--2-----------|-----2-4/6-4|---------4----|---------------0|--------------|
e|--------------|0-2/4-------|--------------|----------------|--------------|
 verse 1 ending
                        E
e|-------------------|------0-----------------------|
b|-------------------|--------0---------------------|
g|------------4------|----------1---2-2-2-2-1-1-----|
d|------2-4/6---6-4--|----2-------2-------------2---|
a|0-2/4--------------|--2---------------------------|
e|------------------0|--------------0-0-0-0-0-----0-|
verse 2:do verse 1 except ending
play this instead
                       E
e|-------------------|------0------------------------|
b|-------------------|--------0------9--------7------|
g|------------4------|----------1------9--------8----|
d|------2-4/6---6-4--|----2-------2------9--------9--|
a|0-2/4--------------|--2-------------------6--------|
e|------------------0|--------------0----------------|

refrain:

Refrain 1:
e|---------4---------------2---------------0---------------------|
b|-----------5---------------2---------------0------------7------|
g|-----6-------6-------4-------4-------2-------2------------8----|
d|---6---6-------6---4---4-------4---2---2-------6/7-----------9-|
a|-4---------------2---------------0-------------8/9----6--------|
e|---------------------------------------------------0-----------|
refrain 1 ending
e|---------4---------------2--------------0-------0------|
b|-----------5---------------2--------------0-------0----|
g|-----6-------6-------4-------4-------2------2-p-----2--|p=pause
d|---6---6-------6---4---4-------4---2---2--------------2|
a|-4---------------2---------------0---------------------|
e|-------------------------------------------------------|

Chorus:
    E
e|------0-------|-----------------------7-|
b|--------0-----|----------------5p4----5-|
g|----------1---|----------------4----4---|
d|---2-------2--|-------------------------|
a|--2-----------|------2-4/6-4------------|
e|0-------------|-0-2/4-------------------|

|---------------|------0-------|
|-5-------------|--------0-----|
|-4-----4-------|----2-----2---|
|6---4/6---6-4--|--2---------2-|
|--------------0|--------------|
|---------------|--------------|
chorus ending
e|-------------------|------0------------|
b|-------------------|--------0----------|
g|------------4------|----------1--------|
d|------2-4/6---6-4--|----2-------2------|
a|0-2/4--------------|--2----------------|
e|------------------0|-------------------|

verse 3:do verse 1 except ending
play this instead
e|-------------------|---7-----5----------4-----2--------------|
b|-------------------|---9-9---7(or5)-7---5-5---4-4-----0------|
g|------------4------|------------------------------------1----|
d|------2-4/6---6-4--|--------------------------------------2--|
a|0-2/4--------------|-----------------------------------------|
e|-------------------|-0-----0----------0-----0-----2/4-------0|

verse 4:do verse 1 using the ending of verse 2

refrain 2:do refrain 1 except ending
play this instead

e|---------4---------------2--------------0-------|
b|-----------5---------------2--------------0---0-|
g|-----6-------6-------4-------4-------2------2---|
d|---6---6-------6---4---4-------4---2---2--------|
a|-4---------------2---------------0--------------|
e|------------------------------------------------|

e|------0-----0------------|
b|-----0----2-----2--------|
g|-2/4----4-----4----------|
d|-------------------------|
a|-------------------------|
e|-------------------------|

repeat chorus using verse 3 ending
reapeat chorus again using this ending

e|-------------------|---------------------------|
b|-------------------|------------9-------7------|
g|------------4------|--2-1---------9-------8----|
d|------2-4/6---6-4--|------2---------9-------9--|
a|0-2/4--------------|--------2---------6--------|
e|------------------0|--0-0-----0----------------|

then repeat refrain 2(this time played with lead)

LEAD:my favorite part(played with refrain 2)
e|-12----11-12---11----12-11-------------------------------|
b|----12------------12-------------------------------------|
g|-13----11-13---11----13-11-------------------------------|
d|---------------------------------------------------------|
a|---------------------------------------------------------|
e|---------------------------------------------------------|

e|---9--7--5--4-------4--5--4------------------------------|
b|---------------5--5--------------------------------------|
g|-8h9--8--6--4-------4--6--4------------------------------|
d|---------------6--5--------------------------------------|
a|---------------------------------------------------------|
e|---------------------------------------------------------|

e|-------------------------------------------|
b|----12--10--9--9--7------------------------|
g|-11h13--11--9--9--8--6--6--6h8--4----------|
d|---------------------7--7--7----6----------|
a|-------------------------------------------|
e|-------------------------------------------|

e|-----------------------------------------------------------9----12-|
b|-7---9---10---9---7h9--9-----------------------------10/12---12----|
g|---9---9----9---9--------9---8h9--9/11--11/13--13/14---------------|
d|-------------------------------------------------------------------|
a|-------------------------------------------------------------------|
e|-------------------------------------------------------------------|
   E                D2
e|---------0------|---------0--------------|
b|-----------0---0|-----3-----3---3--------|
g|-----1-------1--|---2---2-----2----------|
d|---2---2--------|-0----------------------|
a|----------------|------------------------|
e|-0--------------|------------------------|
   A2                C
e|---------0-------|---------0--------------|
b|-----------0---0-|-----------1---1--------|
g|-----2-------2---|-----0-------0----------|
d|---2---2---------|---2---2----------------|
a|-0---------------|-3----------------------|
e|-----------------|------------------------|

   E                D2
e|---------0------|---------0--------------|
b|-----------0---0|-----3-----3---3--------|
g|-----1-------1--|---2---2-----2----------|
d|---2---2--------|-0----------------------|
a|----------------|------------------------|
e|-0--------------|------------------------|
   A2                C
e|---------0-------|--0------|
b|-----------0---0-|--1------|
g|-----2-------2---|--0------|
d|---2---2---------|--2------|
a|-0---------------|--3------|
e|-----------------|---------|

finally
Chorus:
    E
e|------0-------|-----------------------7-|
b|--------0-----|----------------5p4----5-|
g|----------1---|----------------4----4---|
d|---2-------2--|-------------------------|
a|--2-----------|------2-4/6-4------------|
e|0-------------|-0-2/4-------------------|

|---------------|------0-------|
|-5-------------|--------0-----|
|-4-----4-------|----2-----2---|
|6---4/6---6-4--|--2---------2-|
|--------------0|--------------|
|---------------|--------------|
chorus ending
e|-------------------|
b|-------------------|
g|------------4------|
d|------2-4/6---6-4--|
a|0-2/4--------------|
e|------------------0|

thats it.





Comments


Popular Harem Scarem tabs & chords
Honestly (Acoustic) 1 Tabs
Honestly (Acoustic) 2 Tabs
Honestly 4 Tabs
Mandy Tabs
Something To Say Tabs
Something To Say (Solo) Tabs
Something To Say 2 Tabs
Something To Say 5 Tabs
Honestly Ukulele
Something To Say Ukulele


Song lyrics



↑ Back to top | Tablatures and chords are parodies/interpretations of the original songs. You may use it for private study, scholarship, research or language learning purposes only
© 2014 AZChords.com Contact us | Privacy policy | DMCA | Add/correct tabs | Request tabs | Top 50 tabs