» » »

Hard-Fi, Tied Up Too Tight Tabs (ver.2)

Artists:  A B C D E F G H I J K L M N O P Q R S T U V W X Y Z # 

Tied Up Too Tight Tabs (ver.2)

Hard-Fi Tabs
 Rating:
4/5 (10 votes)
Tied Up Too Tight lessons Tabs too difficult? Try these video lessons and learn fast
                (Intro)
-------------------------------------------------------------------------------
          TIED UP TOO TIGHT (LIVE LOUNGE) - Hard-Fi
-------------------------------------------------------------------------------

Tuning:standard

e|---------------------7-------------9-----------7-----------------------------|
B|---------8---------------8------------8------------8-------------------------|
G|-----9-------9---------------9-----------9-------------9---------------------|
D|-----------------------------------------------------------------------------|
A|-----------------------------------------------------------------------------|
E|-----------------------------------------------------------------------------|

e|-----------------------7------------9--------------7-----------------------|
B|---------7-----------------7------------7--------------7-------------------|
G|-----7-------7-----------------7------------7--------------7---------------|
D|---------------------------------------------------------------------------|
A|---------------------------------------------------------------------------|
E|---------------------------------------------------------------------------|

e|-------------------6-----------7-------------6-----------------------------|
B|----------7-----------7------------7-------------7-------------------------|
G|------6------6------------6------------6--------------6--------------------|
D|---------------------------------------------------------------------------|
A|---------------------------------------------------------------------------|
E|---------------------------------------------------------------------------|

e|---------------------9---------------------------7---------------------------|
B|-----------7-------------7--------------7------------7-----------------------|
G|-------7-------7-------------7------6-------6------------6-------------------|
D|-----------------------------------------------------------------------------|
A|-----------------------------------------------------------------------------|
E|-----------------------------------------------------------------------------|

corrections welcome
my first tab so rate high and comment nice
cheers.

| /  slide up
| \  slide down
| h  hammer-on
| p  pull-off
| ~  vibrato
| +  harmonic
| x  Mute note
===============================================================================
            
Submit corrections

comments powered by Disqus
↑ Back to top | Hard-Fi Tabs for Tied Up Too Tight. Lyrics for acoustic guitar and electric guitar. Tablatures and chords are parodies/interpretations of the original songs. You may use it for private study, scholarship, research or language learning purposes only