» » »

Hard-Fi, Suburban Knights Bass tabs (ver.1)

Artists:  A B C D E F G H I J K L M N O P Q R S T U V W X Y Z # 

Suburban Knights Bass tabs (ver.1)

Hard-Fi Tabs
Rating:
0/5 (0 votes)
Hard to play? Try these video lessons and learn fast.
                Suburban Knight by Hard-Fi
Bass Tab by Quillo

Standard Tuning

Intro
G|-----------------------------------|
D|----------------------8-8-6-6------|
A|------6-6-----9-9-6-6---------6----|
E|--4-4-----7-7-------------------7--|

G|-----------------------------------|
D|----------------------8-8-6--------|
A|------6-6-----9-9-6-6-------7-6----|
E|--4-4-----7-7-------------------7--| 

G|-----------------------------------|
D|----------------------8-8-6-6------|
A|------6-6-----9-9-6-6---------6----|
E|--4-4-----7-7-------------------7--|

G|-----------------------------------|
D|-----------------------------------|
A|------6-6-----9-9-6/0--------------|
E|--4-4-----7-7----------------------|

“Suburban Days”
G|-----|-------------------|
D|-----|--6-6--------------|
A|-----|------6-6-----6-6--|
E|-----|----------7-7------| x3

G|-----------------------------------|
D|---------------------6-9-----------|
A|---7-7-7-----------7---------------|
E|-----------7-7-7----------7-7-7----|

G|-----------------------------------|
D|-----6-9---------------------------|
A|---7--------------7-7-7----9-9-9---|
E|----------7-7-7--------------------|

G|-----------------------------------|
D|--6-6---------9-9-6-6---------9-9--|
A|------6-6-7-7---------6-6-7-7------|
E|-----------------------------------|

“Suburban Dreams”
G|-------------------|
D|--6-6--------------|
A|------6-6-----6-6--|
E|----------7-7------| x4

“With that in mind”
G|-----------------------------------|
D|---------------------6-9-----------|
A|---7-7-7-----------7---------------|
E|-----------7-7-7----------7-7-7----|

G|-----------------------------------|
D|-----6-9---------------------------|
A|---7--------------7-7-7----9-9-9---|
E|----------7-7-7--------------------|

G|-----------------|
D|--6--------------|
A|-----6--7-----6--|
E|-----------7-----|

Chorus
G|-----------------------------------|
D|----------------------8-8-6-6------|
A|------6-6-----9-9-6-6---------6----|
E|--4-4-----7-7-------------------7--|

G|-----------------------------------|
D|----------------------8-8-6--------|
A|------6-6-----9-9-6-6-------7-6----|
E|--4-4-----7-7-------------------7--| 

G|-----------------------------------|
D|----------------------8-8-6-6------|
A|------6-6-----9-9-6-6---------6----|
E|--4-4-----7-7-------------------7--|

G|-----------------------------------|
D|----------------------8-8-6--------|
A|------6-6-----9-9-6-6-------7-6----|
E|--4-4-----7-7-------------------7--|

		   X1			x7
G|-------------------|-------------------|
D|-------------------|--6-6--------------|
A|------6-6-----6-6--|------6-6-----6-6--|
E|--4-4-----7-7------|----------7-7------|

“A Global Terror”
G|-----------------------------------|
D|---------------------6-9-----------|
A|---7-7-7-----------7---------------|
E|-----------7-7-7----------7-7-7----|

G|-----------------------------------|
D|-----6-9---------------------------|
A|---7--------------7-7-7----9-9-9---|
E|----------7-7-7--------------------|

G|-----------------|
D|--6--------------|
A|-----6--7-----6--|
E|-----------7-----|

Chorus
G|-----------------------------------|
D|--6-6-----------------8-8-6-6------|
A|------6-6-----9-9-6-6---------6----|
E|----------7-7-------------------7--|

G|-----------------------------------|
D|----------------------8-8-6--------|
A|------6-6-----9-9-6-6-------7-6----|
E|--4-4-----7-7-------------------7--| 

G|-----------------------------------|
D|----------------------8-8-6-6------|
A|------6-6-----9-9-6-6---------6----|
E|--4-4-----7-7-------------------7--|

G|-----------------------------------|
D|----------------------8-8-6--------|
A|------6-6-----9-9-6-6-------7-6----|
E|--4-4-----7-7-------------------7--|

G|---------------|
D|---------------|
A|---------------|
E|--4-4----------|

G|-----------------------|
D|-----------------------|
A|--6---------6----------|
E|-------4---------4-----|

“This one way system”
G|-----------------------------------|
D|---------------------6-9-----------|
A|---7-7-7-----------7---------------|
E|-----------7-7-7----------7-7-7----|

G|-----------------------------------|
D|-----6-9---------------------------|
A|---7--------------7-7-7----9-9-9---|
E|----------7-7-7--------------------|

G|-------------------------------------------|
D|--6-6--------------------------------------|
A|------6-6-7-7-----------6-6-6-6-6-6-6-6-6--|
E|--------------7-7-9-9----------------------|

Chorus
G|-----------------------------------|
D|----------------------8-8-6-6------|
A|------6-6-----9-9-6-6---------6----|
E|--4-4-----7-7-------------------7--|

G|-----------------------------------|
D|----------------------8-8-6--------|
A|------6-6-----9-9-6-6-------7-6----|
E|--4-4-----7-7-------------------7--| 

G|-----------------------------------|
D|----------------------8-8-6-6------|
A|------6-6-----9-9-6-6---------6----|
E|--4-4-----7-7-------------------7--|

G|-----------------------------------|
D|----------------------8-8-6--------|
A|------6-6-----9-9-6-6-------7-6----|
E|--4-4-----7-7-------------------7--|

G|-----------------------------------|
D|----------------------8-8-6-6------|
A|------6-6-----9-9-6-6---------6----|
E|--4-4-----7-7-------------------7--|

G|-----------------------------------|
D|----------------------8-8-6--------|
A|------6-6-----9-9-6-6-------7-6----|
E|--4-4-----7-7-------------------7--| 

G|-----------------------------------|
D|----------------------8-8-6-6------|
A|------6-6-----9-9-6-6---------6----|
E|--4-4-----7-7-------------------7--|

G|-----------------------------------|
D|-----------------------------------|
A|------6-6-----9-9-6----------------|
E|--4-4-----7-7----------------------|

G|-------------------|
D|--6-6--------------|
A|------6-6-----6-6--|
E|----------7-7------| x4

G|-----------------------------------|
D|--6-6-------------6-6--------------|
A|------6-6-----6-6-----6-6-----6----|
E|----------7-7-------------4-7------| x8

-----------------------------------------------------
                            +|oo|+
                            +|oo|+
                              ||
                              ||
                              ||
                              ||
                              ||
                              ||
                              ||
                           _  ||  _ 
                           \\_||_//
                            | [] |
                            | || |
                           / Q[]Q \
                           \______/
            

comments powered by Disqus
↑ Back to top | Hard-Fi Bass for Suburban Knights. Lyrics for acoustic guitar and electric guitar. Tablatures and chords are parodies/interpretations of the original songs. You may use it for private study, scholarship, research or language learning purposes only