» » »

Hardcore Superstar, Wont Go To Heaven Tabs (ver.1)

Artists:  A B C D E F G H I J K L M N O P Q R S T U V W X Y Z # 

Wont Go To Heaven Tabs (ver.1)

Hardcore Superstar Tabs
 Rating:
4.2/5 (5 votes)
Wont Go To Heaven lessons Tabs too difficult? Try these video lessons and learn fast
                Hardcore Superstar- Won't Go To heaven ,by RickStorm



Intro, Played on acoustic guitar 3 times

|-------------------------------------------------|
|-------------------------------------------------|
|-------------------------------------------------|
|-------------------------------------------------|
|---------2/5-5-----------2/5-5-----------2/5-5---|
|-0-0-3-0---------0-0-3-0---------0-0-3-0---------|

Then the electric guitars comes in, same riff but in powerchords
the riff goes 4 times 

|-----------------------------------|
|-----------------------------------|
|----------4/7-7------------4/7-7---|
|-2-2---2--4/7-7---2-2---2--4/7-7---|
|-2-2---2--2/5-5---2-2---2--2/5-5---|
|-0-0-3-0----------0-0-3-0----------|

|--------------------------------------------|
|-------------------------------------88-88\-|
|----------4/7-7------------4/7-7-----77-77\-|
|-2-2---2--4/7-7---2-2---2--4/7-7-----55-55\-|
|-2-2---2--2/5-5---2-2---2--2/5-5------------|
|-0-0-3-0----------0-0-3-0----------0---0----|

  this is the part where he sings something like "woah oh oh no more"
  same time as the guitar plays this

|-------------------|-------------------------------|
|-------------------|-------------------------------|
|-77777777-44444444-|---------4/7-7-----44-44-------|
|-77777777-44444444-|-2-2---2-4/7-7-----44-44--5-4-2|
|-55555555-22222222-|-2-2---2-2/5-5-----22-22--5-4-2|
|-------------------|-0-0-3-0---------0---0----3-2-0|

the lyrics comes in:

"I hate it when you touch me"        
|-----------------------------------|
|-----------------------------------|
|----------4/7-7------------4/7-7---|
|-2-2---2--4/7-7---2-2---2--4/7-7---|
|-2-2---2--2/5-5---2-2---2--2/5-5---|
|-0-0-3-0----------0-0-3-0----------|



"All your jealousy"
|-----------------------------------|
|-----------------------------------|
|----------4/7-7------------4/7-7---|
|-2-2---2--4/7-7---2-2---2--4/7-7---|
|-2-2---2--2/5-5---2-2---2--2/5-5---|
|-0-0-3-0----------0-0-3-0----------|

You don't really know me
|-----------------------------------|
|-----------------------------------|
|----------4/7-7------------4/7-7---|
|-2-2---2--4/7-7---2-2---2--4/7-7---|
|-2-2---2--2/5-5---2-2---2--2/5-5---|
|-0-0-3-0----------0-0-3-0----------|

"Damn I need something new" "im sick of being your tool"

|-------------------|-------------------------------|
|-------------------|-------------------------------|
|-77777777-44444444-|---------4/7-7-----44-44-------|
|-77777777-44444444-|-2-2---2-4/7-7-----44-44--5-4-2|
|-55555555-22222222-|-2-2---2-2/5-5-----22-22--5-4-2|
|-------------------|-0-0-3-0---------0---0----3-2-0|






"Not my fantasy" 

|-----------------------------------|
|-----------------------------------|
|----------4/7-7------------4/7-7---|
|-2-2---2--4/7-7---2-2---2--4/7-7---|
|-2-2---2--2/5-5---2-2---2--2/5-5---|
|-0-0-3-0----------0-0-3-0----------|

"I'm not your clown
I'm not your fool"

|-----------------------------------|
|-----------------------------------|
|----------4/7-7------------4/7-7---|
|-2-2---2--4/7-7---2-2---2--4/7-7---|
|-2-2---2--2/5-5---2-2---2--2/5-5---|
|-0-0-3-0----------0-0-3-0----------|


allright i'm tired  so won't tab the rest sorry hahaha
            
Submit corrections

comments powered by Disqus
↑ Back to top | Hardcore Superstar Tabs for Wont Go To Heaven. Lyrics for acoustic guitar and electric guitar. Tablatures and chords are parodies/interpretations of the original songs. You may use it for private study, scholarship, research or language learning purposes only