» » »

Hardcore Superstar, Wild Boyz Tabs (ver.1)

Artists:  A B C D E F G H I J K L M N O P Q R S T U V W X Y Z # 

Wild Boyz Tabs (ver.1)

Hardcore Superstar Tabs
 Rating:
4/5 (5 votes)
Wild Boyz lessons Tabs too difficult? Try these video lessons and learn fast
                
Really awsome song, but nothing for beginners cuz its quite fast riff. 

Standard tuning

P.S, 30, 00 and 22 in the tab is double notes, 3 and 0, 0 and 0, 2 and 2 but very tight.




Intro:
e------------------------------------------------------|
b------------------------------------------------------|
g------------------------------------------------------| x2
d--2--5-7-5-7---2--5-7-5-2---2--5-7-5-7---9-9-8-7-5----|
a--2--5-7-5-7---2--5-7-5-2---2--5-7-5-7---9-9-8-7-5----|
E--0--3-5-3-5---00-3-5-3-0---00-3-5-3-5---7-7-6-5-3----|

Verse:
e------------------------------------------------------|
b------------------------------------------------------|
g------------------------------------------------------|
d------------------------------------------------------| x4
a------------------------------------------------------|
E--00-30-5-3-5--00-3-5-3-0--00-30-5-3-5--7-7-6-5-3-----|


Last 2 lines in verse:
e--9b-8b-6b-4b-(2b overtune)---------------------------|
b------------------------------------------------------|
g------------------------------------------------------|
d------------------------------------------------------|
a------------------------------------------------------|
E------------------------------------------------------|

Chorus:
e------------------------------------------------------|
b------------------------------------------------------|
g----------7---5--------------7---5--------------------|
d--2---7---7---5--x2--2---5---7---5--x2----------------|
a--2---7---5---3------2---5---5---3--------------------|
E--0---5--------------0---3----------------------------|

Intro

Verse

Chorus


Special verse: (Clean)
   E   G   D   C   D     E   G   D
e--0---3---2---0---2-----0---3---2--------------------|
b--0---3---3---1---3-----0---3---3--------------------|
g--1---0---2---0---2-x4--1---0---2--------------------|
d--2---0---0---2---0-----2---0---0--------------------|
a--2---2-------3---------2---2------------------------|
E--0---3-------3---------0---3------------------------|

Special verse ending: (Dist)
e-----------------------------------------------------|
b-----------------------------------------------------|
g-----------------------------------------------------|
d-----------------------------------------------------|
a--222222222222222222222222222222222222222222222222---|
E--000000000000000000000000000000000000000000000000---|


Small pause with song and drums.

Chorus

Chorus 2nd. part
e------------------------------------|
b------------------------------------|
g-----------7---5--------------------|
d---2---5---7---5--x2----------------|
a---2---5---5---3--------------------|
E---0---3----------------------------|


Outro:
e----------(3~ overtune by another guitar)-----|
b----------------------------------------------|
g----------------------------------------------|
d----------------------------------------------|
a----------------------------------------------|
E--7~-6~-5~-3~---------------------------------|

Small drum"solo" pause.

e----------------------------------------------|
b----------------------------------------------|
g----------------------------------------------|
d--2--5-7-5-7\---------------------------------|
a--2--5-7-5-7-slide----------------------------|
E--0--3-5-3-5/---------------------------------|
            
Submit corrections

comments powered by Disqus
↑ Back to top | Hardcore Superstar Tabs for Wild Boyz. Lyrics for acoustic guitar and electric guitar. Tablatures and chords are parodies/interpretations of the original songs. You may use it for private study, scholarship, research or language learning purposes only