» » »

What Did I Do Tabs (ver.1)

Artists:  A B C D E F G H I J K L M N O P Q R S T U V W X Y Z # 

What Did I Do Tabs (ver.1)

Hardcore Superstar
Rating:
0/5 (0 votes)

Hard to play? Try these video lessons and learn fast.
                'What Did I Do' of the 'Split your Lip' Album


Intro/Verse

|-------------------------------------------------|
|-------------------------------------------------|
|--------7-7-7-7-5-5-5-5--------------------------|
|7-7-7-7-7-7-7-7-5-5-5-5--3--2--------------------|
|5-5-5-5-5-5-5-5-3-3-3-3--3--2--------------------|
|5-5-5-5------------------1--0--------------------|

Pre Chorus

|-----------------------------------------------|
|-----------------------------------------------|
|------5-5---------------------5-5--------------|
|3-3---5-5---7-7--7--7---3-3---5-5--5--5--5-5-5-|
|3-3---3-3---7-7--7--7---3-3---3-3--5--5--5-5-5-|
|1-1---------5-5--5--5---1-1--------3--3--3-3-3-|

|-----------------------------------------------|
|-----------------------------------------------|
|-----------------------------------------------|
|3-3-3-3-3-3-3-3-5-5-5-5-5-5-5-5----------------| x3
|3-3-3-3-3-3-3-3-5-5-5-5-5-5-5-5----------------|
|1-1-1-1-1-1-1-1-3-3-3-3-3-3-3-3----------------|

Chorus

|-----------------------------------------------|
|-----------------------------------------------|
|-----------------------------------------------|
|7-7-7-7-3-3-3-3-5-5-5-5-5-5-5-5----------------| x2
|7-7-7-7-3-3-3-3-5-5-5-5-5-5-5-5----------------|
|5-5-5-5-1-1-1-1-3-3-3-3-3-3-3-3----------------|

|----------------------------------------------------------|
|----------------------------------------------------------|
|5-5-5-5-5-5-5-5-7-7-7-7-7-7-7-7-5-5-5-5-5-5-5-5-----------|
|5-5-5-5-5-5-5-5-7-7-7-7-7-7-7-7-5-5-5-5-5-5-5-5-2-2-2-2---|
|3-3-3-3-3-3-3-3-5-5-5-5-5-5-5-5-3-3-3-3-3-3-3-3-2-2-2-2---|
|------------------------------------------------0-0-0-0---|

Not sure on the solo yet, but the verse is played behind it. Thats pretty much it, just 
listen to the song to work out the order/strumming.
            
Hard to play? Try these video lessons and learn fast. | Correct




comments powered by Disqus
↑ Back to top | Tablatures and chords are parodies/interpretations of the original songs. You may use it for private study, scholarship, research or language learning purposes only