» » »

Hardcore Superstar, Sophisticated Ladies Tabs (ver.1)

Artists:  A B C D E F G H I J K L M N O P Q R S T U V W X Y Z # 

Sophisticated Ladies Tabs (ver.1)

Hardcore Superstar Tabs
 Rating:
4.2/5 (5 votes)
Sophisticated Ladies lessons Tabs too difficult? Try these video lessons and learn fast
                -------------------------------------------------------------------------------
-------------------------------------------------------------------------------


This is my first tab.  Its just the basic guitar parts but it'll get ya started.
Listen to the song to get the rhythms.


Tuning: standard


INTRO

e|--------------------------------------------------------|
B|--------------------------------------------------------|
G|-----------------------------------------------------7--|
D|---5--2--2--7/9-7/9----6/7----5--2--2--7/9-7/9-------5--|
A|---5--2--2--5/7-5/7----4/5----5--2--2--5/7-5/7----------|
E|-0-3--0--0----------0-------0-3--0--0----------0--0-----|


MAIN LICK

e|--------------------------|----------------------|
B|--------------------------|----------------------|
G|--------------------------|-------------------7--|
D|-----7/9-7/9----6/7----5--|-----7/9-7/9-------5--|
A|-----5/7-5/7----4/5----5--|-----5/7-5/7----------|
E|-0-0---------0-------0-3--|-0-0---------0--0-----|

last time
e|--------------------------|--------------------|
B|--------------------------|--------------------|
G|--------------------------|--------------------|
D|-----7/9-7/9----6/7----5--|--------------------|
A|-----5/7-5/7----4/5----5--|-7--6--5h6p5--------|
E|-0-0---------0-------0-3--|--------------7--6--|


VERSE

e|-------------------------|--------------------------|
B|-------------------------|--------------------------|
G|------------------9---8--|--------------------------|  X 4
D|-*--7--5-----7----9---8--|-*--7--5-----7----5----5--|  
A|-*--7--5--7--7----7---6--|-*--7--5--7--7----5----5--|
E|-*--5--3--5--5--0--------|-*--5--3--5--5--0-3--0-3--|


PRE-CHORUS

e|-----------------------------|
B|-----------------------------|
G|-----------------------------|  X 3
D|-----7/9-7/9-----6/7----5----|
A|-----5/7-5/7-----4/5----5----|
E|-0-0----------0-------0-3----|

e|-------------------|
B|-------------------|
G|-------------------|
D|-------------------|
A|-7--6--5h6p5-------|
E|--------------7-6--|


CHORUS

e|-------|---------|------------------------------|
B|-------|---------|------------------------------|
G|-------|---------|------------------------------|  X 2
D|-7-----|-3---5---|-7---9-10---------------------|
A|-7-----|-3---5---|-7----------7--6--5h6p5-------|
E|-5-----|-1---3---|-5---7-8-----------------7-6--|

e|-------------------------------------|
B|-------------------------------------|
G|-------------------------------------|
D|-------------------------------------|
A|-7--6--5h6p5-------7--6--5h6p5-------|
E|---------------7-6--------------7-6--|


************************************

| /   slide up
| \   slide down
| h   hammer-on
| p   pull-off
| ~   vibrato
| +   harmonic
| x   Mute note
| b   Bend
| pb  Pre-bend
| br  Bend release
| pbr Pre-bend release
| brb Bend release bend

************************************
            
Submit corrections

comments powered by Disqus
↑ Back to top | Hardcore Superstar Tabs for Sophisticated Ladies. Lyrics for acoustic guitar and electric guitar. Tablatures and chords are parodies/interpretations of the original songs. You may use it for private study, scholarship, research or language learning purposes only