» » »

No Resistance Tabs (ver.1)

Artists:  A B C D E F G H I J K L M N O P Q R S T U V W X Y Z # 

No Resistance Tabs (ver.1)

Hardcore Superstar
Rating:
0/5 (0 votes)
Tabs too difficult? Try these video lessons and learn fast.
                I'm about 98% sure I got everything correct. only the vers part might include a
few mistakes. Enjoy!

intro
 [00:00- 00:23]
e|-----|-------------------------------------------------|
b|-----|-------------------------------------------------|
g|---7-|--999...-12----12----12--7/999...-12----12----12-|
d|-5-7-|--999...-12-12-12-12-12--7/999...-12-12-12-12-12-|
a|-5-5-|--777...-10-12-10-12-10--5/777...-10-12-10-12-10-|
E|-3---|------------10----10-----------------10----10----|

riff
[00:24-00:41]
e|-------------------------------|
b|-------------------------------|
g|---7-9-------------------------|
d|-5-7-9---7-8-7-5--5-2-5-7-8----|
a|-5-5-7---7-8-7-5--5-2-5-7-8----|
E|-3----0~-5-6-5-3--3-0-3-5-6----|

vers
[00:41-00:57]
e|-------------------------------|
b|-------------------------------|
g|-9------------9----------------|
d|-9------------9----------------|
a|-7------------7----------------|
E|---3-5-6-5-33---3-5-6-5-3-5-3--|

ref
[00:57-1:11]                     [01:11-01:15]
e|----------------------------|-----------------------|
b|----------------------------|-----------------------|
g|-5-5/9\7-7---99-12-7--------|-----------------------|
d|-5-5/9\7-7---99-12-7--------|-99999-10101010-121212-|
a|-3-3/7\5-5---77-10-5--------|-99999-10101010-121212-|
E|-----------0~---------------|-77777-8-8-8-8--101010-|

riff
[1:16-1:32]
e|-------------------------------|
b|-------------------------------|
g|-9-----------------------------|
d|-9----7-8-7-5--5-2-5-7-8-------|
a|-7----7-8-7-5--5-2-5-7-8-------|
E|---0~-5-6-5-3--3-0-3-5-6-------|

vers
[1:32-1:48]
e|-------------------------------|
b|-------------------------------|
g|-9------------9----------------|
d|-9------------9----------------|
a|-7------------7----------------|
E|---3-5-6-5-33---3-5-6-5-3-5-3--|

ref
[1:49-2:04]
e|----------------------------|-----------------------|
b|----------------------------|-----------------------|
g|-5-5/9\7-7---99-12-7--------|-9---------------------|
d|-5-5/9\7-7---99-12-7--------|-9---7-8-7-5~----------|
a|-3-3/7\5-5---77-10-5--------|-7---7-8-7-5~----------|
E|-----------0~---------------|--0~-5-6-5-3~----------|

solo: same as ref

bridge (same as verse)
[02:27-02:35]
e|-------------------------------|
b|-------------------------------|
g|-9------------9----------------|
d|-9------------9----------------|
a|-7------------7----------------|
E|---3-5-6-5-33---3-5-6-5-3-5-3--|

ref [02:35-02:53]

[02:36-03:09]
e|-------------------------------------------------|
b|-------------------------------------------------|
g|--999...-12----12----12--7/999...-12----12----12-|
d|--999...-12-12-12-12-12--7/999...-12-12-12-12-12-|
a|--777...-10-12-10-12-10--5/777...-10-12-10-12-10-|
E|0~----------10----10-----------------10----10----|

e|------------------------------------------------------------|
b|------------------------------------------------------------|
g|12----12----12-12--12----12----12-12--12----12----12-12--9~-|
d|12-12-12-12-12-12--12-12-12-12-12-12--12-12-12-12-12-12--9~-|
a|10-12-10-12-10-10--10-12-10-12-10-10--10-12-10-12-10-10--7~-|
E|---10----10-----------10----10-----------10----10-----------|


e|---------------------|
b|---------------------|
g|12----12----12-12----|
d|12-12-12-12-12-12-2~-|
a|10-12-10-12-10-10-2~-|
E|---10----10-------0~-|

after the part with fuzzing and all that **** comes the riff below a few times
e|--------------------------|
b|--------------------------|
g|9-------------------------|
d|9---7-8-7-5--5-2-5-7-8----|
a|7---7-8-7-5--5-2-5-7-8----|
E|----5-6-5-3--3-0-3-5-6----|

 and then the song fades out with an E
            
Tabs too difficult? Try these video lessons and learn fast.


comments powered by Disqus
↑ Back to top | Tablatures and chords are parodies/interpretations of the original songs. You may use it for private study, scholarship, research or language learning purposes only