>
 >
Into Debauchery

Into Debauchery Guitar Tabs

Hardcore Superstar - Into Debauchery chords, tabs, tablatures, lyrics

Guitar lessons | Add/correct | Request | Top 50 tabs Artists:  A B C D E F G H I J K L M N O P Q R S T U V W X Y Z 0-9

Into Debauchery Guitar Tabs – Hardcore Superstar

CD, Sheet music, Poster

Do you like Into Debauchery? Share with your friends now
Tabs
                          Hardcore Superstar-Into Debauchery-Beg For It

Tuning: Drop D:DADGBE

Intro:

E|-----------------|
B|-----------------|
G|-----------------|
D|--0----0--7---0--|
A|--0----0--7---0--|
D|--0----0--7---0--|

Main Riff:

E|--------------------------------------------------------------------------|
B|--------------------------------------------------------------------------|
G|----------------------------------------5-5-------------------------------|
D|--0-00-6767-0-00-6767--8-88-3-33--------5-5-------------------------------|
A|--0-00-6767-0-00-6767--8-88-3-33--------3-3-------------------------------|
D|--0-00-6767-0-00-6767--8-88-3-33-000000-----------------------------------|

E|--------------------------------------------------------------------------|
B|--------------------------------------------------------------------------|
G|-7-------------------------------------5----------------------------------|
D|-7-00-6767-0-00-6767--8-88-3-33--------5----------------------------------|
A|-5-00-6767-0-00-6767--8-88-3-33--------3----------------------------------|
D|---00-6767-0-00-6767--8-88-3-33-000000------------------------------------|

Verse:

E|--------------------------------------------------------------------------|
B|--------------------------------------------------------------------------|
G|----7--------------------------------55--7--------------------------------|
D|----7-0-0-0-0-0-0-0-8-88-3-33--------55--7-0-00-6767-0-00-6767------------|
A|----5-0-0-0-0-0-0-0-8-88-3-33--------33--5-0-00-6767-0-00-6767------------|
D|------0-0-0-0-0-0-0-8-88-3-33-000000-------0-00-6767-0-00-6767------------|

E|---------------------------------------------------------------------------|
B|---------------------------------------------------------------------------|
G|----------------------------------55--7------------------------------------|
D|-0-0-0-0-0000000-8-88-3-33--------55--7--0-0-0-0---------------------------|
A|-0-0-0-0-0000000-8-88-3-33--------33--5--0-0-0-0---------------------------|
D|-0-0-0-0-0000000-8-88-3-33-000000--------0-0-0-0-3-0-7-6-------------------|

Chorus:

E|--------------------------------------------------------------------------|
B|--------------------------------------------------------------------------|
G|-3333-----------5555---3333-----------5555--------------------------------|
D|-3333-3332-0000-5555---3333-3332-0000-5555--------------------------------|
A|-1111-3332-0000-3333---1111-3332-0000-3333--------------------------------|
D|------3332-0000-----------3332-0000---------------------------------------|

Main Riff:

E|---------------------------------------------------------------------------|
B|---------------------------------------------------------------------------|
G|--7-------------------------------------5-5--------------------------------|
D|--7-00-6767-0-00-6767--8-88-3-33--------5-5--------------------------------|
A|--5-00-6767-0-00-6767--8-88-3-33--------3-3--------------------------------|
D|----00-6767-0-00-6767--8-88-3-33-000000------------------------------------|

E|--------------------------------------------------------------------------|
B|--------------------------------------------------------------------------|
G|-7-------------------------------------5----------------------------------|
D|-7-00-6767-0-00-6767--8-88-3-33--------5----------------------------------|
A|-5-00-6767-0-00-6767--8-88-3-33--------3----------------------------------|
D|---00-6767-0-00-6767--8-88-3-33-000000------------------------------------|

Verse:

E|--------------------------------------------------------------------------|
B|--------------------------------------------------------------------------|
G|----7--------------------------------55--7--------------------------------|
D|----7-0-0-0-0-0-0-0-8-88-3-33--------55--7-0-00-6767-0-00-6767------------|
A|----5-0-0-0-0-0-0-0-8-88-3-33--------33--5-0-00-6767-0-00-6767------------|
D|------0-0-0-0-0-0-0-8-88-3-33-000000-------0-00-6767-0-00-6767------------|

E|---------------------------------------------------------------------------|
B|---------------------------------------------------------------------------|
G|----------------------------------55--7------------------------------------|
D|-0-0-0-0-0000000-8-88-3-33--------55--7--0-0-0-0---------------------------|
A|-0-0-0-0-0000000-8-88-3-33--------33--5--0-0-0-0---------------------------|
D|-0-0-0-0-0000000-8-88-3-33-000000--------0-0-0-0-3-0-7-6-------------------|

Chorus:

E|--------------------------------------------------------------------------|
B|--------------------------------------------------------------------------|
G|-3333-----------5555---3333-----------5555--------------------------------|
D|-3333-3332-0000-5555---3333-3332-0000-5555--------------------------------|
A|-1111-3332-0000-3333---1111-3332-0000-3333--------------------------------|
D|------3332-0000-----------3332-0000---------------------------------------|

E|--------------------------------------------------------------------------|
B|--------------------------------------------------------------------------|
G|-3333-----------5555---3333-----------5555--------------------------------|
D|-3333-3332-0000-5555---3333-3332-0000-5555--------------------------------|
A|-1111-3332-0000-3333---1111-3332-0000-3333--------------------------------|
D|------3332-0000-----------3332-0000---------------------------------------|

Pre-Solo:

E|--------------------------------------------------------------------------|
B|--------------------------------------------------------------------------|
G|-7------------------------------------------------------------------------|
D|-7------------------------------------------------------------------------|
A|-5----------------------12v--15v------------------------------------------|
D|--------------------------------------------------------------------------|

E|--------------------------------------------------------------------------|
B|--------------------------------------------------------------------------|
G|--------------------------------------------------------------------------|
D|-0-3-7--0-3-6767--0-3-7--0-3-6767--0-3----0-3-------0-3----0-3------------|
A|-0-3-7--0-3-6767--0-3-7--0-3-6767--0-3--2-0-3-2323--0-3-2--0-3-2323-------|
D|-0-3-7--0-3-6767--0-3-7--0-3-6767--0-3----0-3-------0-3----0-3------------|

E|--------------------------------------------------------------------------|
B|--------------------------------------------------------------------------|
G|--------------------------------------------------------------------------|
D|----8888-7777-3332-0000---------------------------------------------------|
A|----8888-7777-3332-0000---------------------------------------------------|
D|----8888-7777-3332-0000---------------------------------------------------|

Solo:

E|----------------------------------------------------------------------10----|
B|------------------------------------------------------------------13b-------|
G|---------------------------------------15v-15-14v-14-12-10-9h10-------------|
D|---------------------------------------------------------------12-----------|
A|-/5-87--7-8-10-12--12-10--------101213--------------------------------------|
D|--------------------------121415--------------------------------------------|

E|---------------------------------------------------------10-12-13-15------|
B|-------------------------------------------------10131013-----------------|
G|-------------------------10121012--------10121012-------------------------|
D|-----------------10121012--------10121012---------------------------------|
A|---------10121012---------------------------------------------------------|
D|-12151215-----------------------------------------------------------------|

E|--15b----17b---17-15-13-15b-----------------------------------------------|
B|------------------------------15b-----------------------------------------|
G|-------------------------------------15-14-12-10--------------------------|
D|--------------------------------------------------------------------------|
A|--------------------------------------------------------------------------|
D|--------------------------------------------------------------------------|

Breakdown Chorus:

E|--------------------------------------------------------------------------|
B|--------------------------------------------------------------------------|
G|-3333-----------5555---3333-----------5555--------------------------------|
D|-3333-3332-0000-5555---3333-3332-0000-5555--------------------------------|
A|-1111-3332-0000-3333---1111-3332-0000-3333--------------------------------|
D|------3332-0000-----------3332-0000---------------------------------------|

E|--------------------------------------------------------------------------|
B|--------------------------------------------------------------------------|
G|-3333-----------5555---3333-----------5555--------------------------------|
D|-3333-3332-0000-5555---3333-3332-0000-5555--------------------------------|
A|-1111-3332-0000-3333---1111-3332-0000-3333--------------------------------|
D|------3332-0000-----------3332-0000---------------------------------------|

Chorus:

E|--------------------------------------------------------------------------|
B|--------------------------------------------------------------------------|
G|-3333-----------5555---3333-----------5555--------------------------------|
D|-3333-3332-0000-5555---3333-3332-0000-5555--------------------------------|
A|-1111-3332-0000-3333---1111-3332-0000-3333--------------------------------|
D|------3332-0000-----------3332-0000---------------------------------------|

E|--------------------------------------------------------------------------|
B|--------------------------------------------------------------------------|
G|-3333-----------5555---3333-----------5555--------------------------------|
D|-3333-3332-0000-5555---3333-3332-0000-5555--------------------------------|
A|-1111-3332-0000-3333---1111-3332-0000-3333--------------------------------|
D|------3332-0000-----------3332-0000---------------------------------------|

Outro:

E|-----------------|
B|-----------------|
G|-----------------|
D|--0----0--7---0--|
A|--0----0--7---0--|
D|--0----0--7---0--|





Comments


Popular Hardcore Superstar tabs & chords
We Don't Celebrate Sundays 1 Bass Tabs
Bastards Tabs
Dreamin' In A Casket Tabs
Dreamin' In A Casket 1 Tabs
Here Comes That Sick Bitch Again Tabs
Shame Intro Tabs
Silence For The Peacefully Tabs
Someone Special 2 Tabs
Sophisticated Ladies Tabs
Sorry For The Shape I'm In Tabs


Song lyrics



↑ Back to top | Tablatures and chords are parodies/interpretations of the original songs. You may use it for private study, scholarship, research or language learning purposes only
© 2014 AZChords.com Contact us | Privacy policy | DMCA | Add/correct tabs | Request tabs | Top 50 tabs