» » »

Here Comes That Sick Bitch Again Chords (ver.1)

Artists:  A B C D E F G H I J K L M N O P Q R S T U V W X Y Z # 

Here Comes That Sick Bitch Again Chords (ver.1)

Hardcore Superstar
Rating:
0/5 (0 votes)

Tabs too difficult? Try these video lessons and learn fast.
                'HERE COMES THAT SICK b**ch AGAIN' by Hardcore Superstar

Tuning: 1 step down (D G C F A D)

        6  5  4  3  2  1
        E  A  D  G  B  e
Chords:
Em:     x  7  9  9  8  7   alt.   0  2  2  0  0  0
E9sus4: x  7  7  7  7  7
C:      x  3  2  0  1  0
G:      3  2  0  0  3  3
D:      x  x  0  2  3  2

Listen to the song for correct timing and when to play Em on 
7th fret (x79987) or when to play it as an open chord (022000).


(Intro)

     Em            E9sus4    C          G D   
e|---7-7--7-7-7-7--7-7--7-7-7--0-0-0-0-0--3-2-2-0-3-|
B|---7h8--8-8-8-8--8p7--7-7-7--1-1-1-1-1--3-3-3-3-3-|
G|---7h9--9-9-9-9--9p7--7-7-7--0-0-0-0-0--0-2-2-2-2-|
D|---7h9--9-9-9-9--9p7--7-7-7--2-2-2-0-2--0---------|
A|---7-7--7-7-7-7--7-7--7-7-7--3-3-3-3-3--2---------|
E|-0--------------------------------------3---------|

     Em            E9sus4               C            D
e|-7-7--7-7-7-7--7-7--7-7--------------------------------------------|
B|-7h8--8-8-8-8--8p7--7-7--8p7----------8--8--8---8-\10--10-10-10-10-|
G|-7h9--9-9-9-9--9p7--7-7------9p7------9--9--9---9-\11--11-11-11-11-|
D|-7h9--9-9-9-9--9p7--7-7----------9\10-10-10-10--10\12--12-12-12-12-|
A|-7-7--7-7-7-7--7-7--7-7--------------------------------------------|
E|-------------------------------------------------------------------|

(Verse)

      Em                  E9sus4
I get a little sentemetal when I fall
        C                        G       D
I get a little too much when you push me too far
Em                           E9sus4
Don't you be sad but I'm the best that you had
           C                          G      D
It hurts a little too much and it got out of hand

(Pre-chorus)

Em        D        G                       D
I know it so wrong been there before but I always want more
  Em                   D                  G
I hope you can see you don't matter to me go set me free

	(Chorus)

	Em                    G    D
	Oh no here comes that sick b**ch again
	            C                           G    D
	So put your guard up because she want a sick man
	Em               G       D                    C    D
	Someday she will be your friend and break you down down again


     Em            E9sus4    C          G D   
e|-7-7--7-7-7-7--7-7--7-7-7--0-0-0-0-0--3-2-2-0-3-|
B|-7h8--8-8-8-8--8p7--7-7-7--1-1-1-1-1--3-3-3-3-3-|
G|-7h9--9-9-9-9--9p7--7-7-7--0-0-0-0-0--0-2-2-2-2-|
D|-7h9--9-9-9-9--9p7--7-7-7--2-2-2-0-2--0---------|
A|-7-7--7-7-7-7--7-7--7-7-7--3-3-3-3-3--2---------|
E|--------------------------------------3---------|
                             My friend

     Em            E9sus4               C            D
e|-7-7--7-7-7-7--7-7--7-7--------------------------------------------|
B|-7h8--8-8-8-8--8p7--7-7--8p7----------8--8--8---8-\10--10-10-10-10-|
G|-7h9--9-9-9-9--9p7--7-7------9p7------9--9--9---9-\11--11-11-11-11-|
D|-7h9--9-9-9-9--9p7--7-7----------8\10-10-10-10--10\12--12-12-12-12-|
A|-7-7--7-7-7-7--7-7--7-7--------------------------------------------|
E|-------------------------------------------------------------------|


(Verse)

Em                             E9sus4
You name me to the wanted if I don't answer your call
    C                    G        D
You say it aint easy and easy you are
Em                        E9sus4   C                 G        D
I feel a bit sad and it's bad give sh*t to me that's what she said

(Pre-chorus)

Em        D        G                       D
I know it so wrong been there before but I always want more
  Em                   D                  G
I hope you can see you don't matter to me go set me free

	(Chorus)

	Em                    G    D
	Oh no here comes that sick b**ch again
	            C                           G    D
	So put your guard up because she want a sick man
	Em               G       D                    C    D
	Someday she will be your friend and break you down down again


     Em            E9sus4    C          G D   
e|-7-7--7-7-7-7--7-7--7-7-7--0-0-0-0-0--3-2-2-0-3-|
B|-7h8--8-8-8-8--8p7--7-7-7--1-1-1-1-1--3-3-3-3-3-|
G|-7h9--9-9-9-9--9p7--7-7-7--0-0-0-0-0--0-2-2-2-2-|
D|-7h9--9-9-9-9--9p7--7-7-7--2-2-2-0-2--0---------|
A|-7-7--7-7-7-7--7-7--7-7-7--3-3-3-3-3--2---------|
E|--------------------------------------3---------|
                             My friend               Again

     Em            E9sus4    C          G D   
e|-7-7--7-7-7-7--7-7--7-7-7--0-0-0-0-0--3-2-2-0-3-|
B|-7h8--8-8-8-8--8p7--7-7-7--1-1-1-1-1--3-3-3-3-3-|
G|-7h9--9-9-9-9--9p7--7-7-7--0-0-0-0-0--0-2-2-2-2-|
D|-7h9--9-9-9-9--9p7--7-7-7--2-2-2-0-2--0---------|
A|-7-7--7-7-7-7--7-7--7-7-7--3-3-3-3-3--2---------|
E|--------------------------------------3---------|


(Pre-chorus)

        Em                D
I get a little sentemetal when I fall
        C                             D
I get a little too much when you push me too far
  Em                  D                G
You say it ain't easy and easy you are go set me free


	(Chorus)

	Em                    G    D
	Oh no here comes that sick b**ch again
	            C                           G    D
	So put your guard up because she want a sick man
	Em               G       D                    C    D
	Someday she will be your friend and break you down down again

(Outro)

     Em            E9sus4    C          G D   
e|-7-7--7-7-7-7--7-7--7-7-7--0-0-0-0-0--3-2-2-0-3-|
B|-7h8--8-8-8-8--8p7--7-7-7--1-1-1-1-1--3-3-3-3-3-|
G|-7h9--9-9-9-9--9p7--7-7-7--0-0-0-0-0--0-2-2-2-2-|
D|-7h9--9-9-9-9--9p7--7-7-7--2-2-2-0-2--0---------|
A|-7-7--7-7-7-7--7-7--7-7-7--3-3-3-3-3--2---------| x3
E|--------------------------------------3---------|
                             My friend

     Em            E9sus4               C            D
e|-7-7--7-7-7-7--7-7--7-7--------------------------------------------|
B|-7h8--8-8-8-8--8p7--7-7--8p7----------8--8--8---8-\10--10-10-10-10-|
G|-7h9--9-9-9-9--9p7--7-7------9p7------9--9--9---9-\11--11-11-11-11-|
D|-7h9--9-9-9-9--9p7--7-7----------8\10-10-10-10--10\12--12-12-12-12-|
A|-7-7--7-7-7-7--7-7--7-7--------------------------------------------|
E|-------------------------------------------------------------------|

My friend again
My my my my my my friend
Again
Again
Oh oh oh oh oh
My friend
            
Tabs too difficult? Try these video lessons and learn fast.


comments powered by Disqus
↑ Back to top | Tablatures and chords are parodies/interpretations of the original songs. You may use it for private study, scholarship, research or language learning purposes only