» » »

Have You Been Around Tabs (ver.1)

Artists:  A B C D E F G H I J K L M N O P Q R S T U V W X Y Z # 

Have You Been Around Tabs (ver.1)

Hardcore Superstar
Rating:
0/5 (0 votes)

Hard to play? Try these video lessons and learn fast.
                Have You Been Around by Hardcore Superstar

Band doesn't use bass until the bridge. 
And the there are 2 guitars.

Guitar 1

Riff 1

E|---------------------|
B|-----------------9-8-|
G|-6h8-8-8-8-8-6-8-----|
D|---------------------|
A|---------------------|
E|---------------------|

Guitar 2

Intro

E|---------------------|
B|---------------------|
G|-8/----8---6---------|
D|-8/----8---6---6---8-|
A|-6/----6---4---6---8-|
E|---------------4---6-|


E|-------------------------|
B|-------------------------|
G|-8-8-8-8-8-8-6-6-6-6-6-6-|
D|-8-8-8-8-8-8-6-6-6-6-6-6-|
A|-6-6-6-6-6-6-4-4-4-4-4-4-|
E|-------------------------|

E|-------------------------|
B|-------------------------|
G|-------------------------|
D|-6-6-6-6-6-6-8-8-8-8-8-8-|
A|-6-6-6-6-6-6-8-8-8-8-8-8-|
E|-4-4-4-4-4-4-6-6-6-6-6-6-|

Verse - "What do I have to do for you..."

E|-------------------------|
B|-------------------------|
G|-8-8-8-8-8-8-6-6-6-6-6-6-|
D|-8-8-8-8-8-8-6-6-6-6-6-6-|
A|-6-6-6-6-6-6-4-4-4-4-4-4-|
E|-------------------------|

E|-------------------------|
B|-------------------------|
G|-------------------------|
D|-6-6-6-6-6-6-8-8-8-8-8-8-|
A|-6-6-6-6-6-6-8-8-8-8-8-8-|
E|-4-4-4-4-4-4-6-6-6-6-6-6-|

Pre Chorus - "You never said anything about love..."

E|------------------------|
B|------------------------|
G|-5--5--------8--8-------|
D|-5--5--6--6--8--8--8--8-|
A|-3--3--6--6--6--6--8--8-|
E|-------4--4--------6--6-|

E|------------------------|
B|------------------------|
G|-5--5-------------------|
D|-5--5--6--6--8--8-------|
A|-3--3--6--6--8--8-------|
E|-------4--4--6--6-------|

Chorus - "Hey, hey... Hear my prayer..."
         Same as Verse Chords, just add Riff 1 after 
         the first x688xx chords.
Verse

Chorus

Bridge - Bass plays the same notes in verse
         except strum note then let it ring
  
Guitar 2 (Guitar 1 playing the riff)

- Play this after the 2nd time, riff 1 is played
E|--------|
B|--------|
G|--------|
D|-6--6/8-|
A|--------|
E|--------|

- Play this after the 3nd time, riff 1 is played
E|---------|
B|---------|
G|---------|
D|---6-8p6-|
A|-6-------|
E|---------|


- Play this DURING the sixth time, riff 1 is played

E|----------------------------|
B|----------------------------|
G|----------------5-----------|
D|---5-8-5-8--8-5---5-6-5-3---|
A|-6------------------------6-|
E|----------------------------|

Chorus

Ending - The same as chorus but the ending riff is changed.

Ending Riff/Solo - Done on same guitar as guitar, and its 
                   different when they play live so just 
                   improvise using the scale around Riff 1.

Last Riff

E|----------------------|
B|-9h11p9/8-8h9p8/6-6/4-|
G|----------------------|
D|----------------------|
A|----------------------|
E|----------------------|
            
Hard to play? Try these video lessons and learn fast. | Correct




comments powered by Disqus
↑ Back to top | Tablatures and chords are parodies/interpretations of the original songs. You may use it for private study, scholarship, research or language learning purposes only