>
 >
Rock Hummel Gets The Rockets

Rock Hummel Gets The Rockets Guitar Tabs

Hans Zimmer - Rock Hummel Gets The Rockets chords, tabs, tablatures, lyrics

Guitar lessons | Add/correct | Request | Top 50 tabs Artists:  A B C D E F G H I J K L M N O P Q R S T U V W X Y Z 0-9

Rock Hummel Gets The Rockets Guitar Tabs – Hans Zimmer

CD, Sheet music, Poster

Do you like Rock Hummel Gets The Rockets? Share with your friends now
Tabs
The Rock (Hummel gets the rockets)

Tuning: Standard


        Dm     -   x57765 (xx0231)
	Gm     -   355333
	C      -   x32010 (335553)
	Am     -   577555 (x02210)
	Am/C   -   877555 (x32210)
        D      -   xx0232 (557775)
        Cm     -   335533
        Bb     -   113331 (688755)
        F      -   133233 (xx3211)
        Fm     -   133111
        G/B    -   x20033  
        Ab     -   466544
        G      -   355433 (320033)
        Fm/Ab  -   433111
        Bbm    -   688666 (x13321)
        Ebm    -   x68876
        Bbm/C# -   988777   
        Db     -   x46664
        F#     -   244222
        F#m    -   244222
        Bm     -   x24432
        Bm/D   -   x54xxx



    0.21

 Dm                     Gm     C    Dm                     
e|----------------------5-5-3-1-3-------------| 
B|------------------5-6-----------------------|
G|-------5-7s--5-7h----------------5-7s--5-7h-| 
D|--------------------------------------------| 
A|--------------------------------------------| 
E|--------------------------------------------| 

            Gm  C        Gm    Dm  Am     
 e|-0-1h-3h-5s-1-3-1-3----3-5-6-5-3-5----------|
 B|-----------------------------------3-5-3----|
 G|--------------------------------------------|
 D|--------------------------------------------|
 A|--------------------------------------------|
 E|--------------------------------------------|

      Dm     Dm       Am/C    Gm   Dm    Am/C   C      
e|------------------------------------------------|
B|------------------------------------------------|
G|-5--7s------------------------------------------|
D|------------------------------------------------|
A|------------------------------------------------|
E|------------------------------------------------|

     Dm    Am/C    Gm   Dm   Am
e|--------------------------------------|
B|--------------------------------------|
G|--------------------------------------|
D|--------------------------------------|
A|--------------------------------------|
E|--------------------------------------|



SOLO

version 1   1.28

         Gm               D          Gm          
e|---6-5-3---5-6--8-6-5-3-5------8-5-6--5-3-11-|
B|---------------------------------------------|
G|-7-------------------------7-----------------|
D|---------------------------------------------|
A|---------------------------------------------|
E|---------------------------------------------|
 
   Cm       Bb    F       Cm      Fm  
e|----11-10-11-10-8--8-10-11-10-8-16----|
B|-13--------------------------------13-|
G|--------------------------------------|
D|--------------------------------------|
A|--------------------------------------|
E|--------------------------------------|

   
   G/B   Cm        Ab      Fm       Cm       G         Cm
e|-16-15-13-15-11--8-10-11-10-8--16-13----11-10-8-10---8-|
B|-------------------------------------13----------------|
G|-------------------------------------------------------|
D|-------------------------------------------------------|
A|-------------------------------------------------------|
E|-------------------------------------------------------|


         Fm  Fm/Ab Bbm  Cm       Fm       Bbm    Ab  Bb    
e|---4-3-1--3-4-6-4-3-1-3----6-3-4--3-1-9----9-8-9-8----|
B|----------------------------------------11---------11-|
G|-5-----------------------5----------------------------|
D|------------------------------------------------------|
A|------------------------------------------------------|
E|------------------------------------------------------|
   
   Bb    Bbm   Ebm   F    Bbm
e|---8-9-8---14---14-13-11-13-----|
B|-11------11---11------------14--|
G|--------------------------------|
D|--------------------------------|
A|--------------------------------|  
E|--------------------------------|
   


   Bbm      Ebm      F               Bbm
e|---------------14---11-9-8-6-8-----6-----|
B|-11-13-14-13-11---11---------------------|
G|-----------------------------------------|
D|-----------------------------------------|
A|-----------------------------------------|
E|-----------------------------------------|

_______________________________________________

version 2 (best)    1.28 

            Gm                    D                    
e|-----------------------------------|
B|---11-10-----10-11-13-11-10----10--|
G|---------12-----------------12-----|
D|-12--------------------------------|
A|-----------------------------------|
E|-----------------------------------|
                      
         
           Gm          Cm      Bb         F
 ---------------------11----11-10-11-10---8-----|
 ----13-10-11---10-------13---------------------|
 ------------------12---------------------------|
 -12--------------------------------------------|
 -----------------------------------------------|
 -----------------------------------------------|

         Cm       Fm    G/B   Cm      
e|-8--10-11-10----16----16-15-13-15-11-|
B|-------------13----13----------------|
G|-------------------------------------|
D|-------------------------------------|
A|-------------------------------------|
E|-------------------------------------|

        Ab      Fm       Cm       G           Cm
 ----10-11-10----16---13------------------------|
 -13----------13----13---16-15-13-15-----13-----|          
 -----------------------------------------------|
 -----------------------------------------------|
 -----------------------------------------------|
 -----------------------------------------------|


           

           Fm   Fm/Ab      Bbm  Cm                             
e|-----------------------------------|
B|---9--8------8--9--11-9--8-----8---|
G|---------10-----------------10-----|
D|-10--------------------------------|
A|-----------------------------------|
E|-----------------------------------|
                      
             Fm        Bbm      Ab         Bb          
e|----------------------9----9--8--9--8----6-----|
B|----9--8-------8---6----11---------------------|
G|-----------10----------------------------------|
D|-10--------------------------------------------|
A|-----------------------------------------------|
E|-----------------------------------------------| 



         Bbm     Ebm        F      Bbm     
e|-6---8--9--8-----14----14-13-11-13-9-|
B|-------------11----11----------------|
G|-------------------------------------|
D|-------------------------------------|
A|-------------------------------------|
E|-------------------------------------|

       Bbm      Ebm      F               Bbm
e|----8--9--8-----14---11-----------------------|  
B|-11----------11----11---14-13-11-13-----11-11-|
G|----------------------------------------------|
D|----------------------------------------------|
A|----------------------------------------------|
E|----------------------------------------------|

   2.48
     
   Bbm          Bbm/C# Db   F#     Ebm  Db   Bbm  Bb            
e|----------------------------------11--9-----8------|
B|-11----11-----13-----14---11---11--------------11--|
G|---------------------------------------------------|
D|---------------------------------------------------|
A|---------------------------------------------------|
E|---------------------------------------------------|

          Ebm            Bb   Ebm
e|-------------------------13-- 14-|
B|----13--15--16---16--------------|
G|---------------------------------|
D|---------------------------------|
A|---------------------------------|
E|---------------------------------|

   Ebm   Db              C      Bbm
e|----------------------------------------|
B|-16----14-----13---11--13-----11--11----|
G|----------------------------------------|
D|----------------------------------------|
A|----------------------------------------|
E|----------------------------------------|


  3.45

e|--------------------------------------------------------|
B|--------------------------------------------------------|
G|------5-----7-7----------------------5-----7-7-----5----|
D|-7-7--5--7--7-7----5-5-5-5-7-7--7-7--5--7--7-7- -5-5-5-7|
A|-7-7--3--7--5-5----5-5-5-5-7-7--7-7--3--7--5-5---5-3-5-7|
E|-5-5-----5---------3-3-3-3-5-5--5-5-----5--------3---3-5|


  4.02

e|-----------------------------------------|
B|-----------------------------------------|
G|-----------------------------------------|
D|----3-2---------2----------5-3-2---------|
A|--------5--3-5----3----------------3-----|
E|--5------------------5----------------5--|


  4.17

e|-----------------------------|
B|-----------------------------|
G|-----------------4-----------|
D|----7-6-4---6-7----7-6-4-6---|
A|--4--------------------------|
E|-----------------------------|


  4.26

e|----------------------------------------|
B|----------------------------------------|
G|--------2--4-----2---------2------------|  X2
D|--4--6--2--4--6--2---4--6--2--6--2--4---|
A|--4--6--0--2--6--0---4--6--0--6--2--4---|
E|--2--4--------4------2--4-----4--0--2---|

   4.35

e|-------------------| 
B|-------------------| 
G|-2--4--5--7--4--5--|   
D|-2--4--5--7--4--5--| 
A|-0--2--3--5--2--3--| 
E|-------------------|

e|---------------------| 
B|---------------------| 
G|-2--4--5--4-----2----|   
D|-2--4--5--4--5--2----| X2 
A|-0--2--3--2--5--0----| 
E|-------------3-------|


  4.41

e|--------------------------------------------------------|
B|--------------------------------------------------------|
G|----------------------5--4------------------------------|
D|-7--7--5--7---7--7-7--5--4--7--5---7--7---2-2-2-2-2-2-2-|
A|-7--7--5--7---7--7-7--3--2--7--5---7--7---2-2-2-2-2-2-2-|
E|-5--5--3--5---5--5-5--------5--3---5--5---0-0-0-0-0-0-0-|


  4.49

e|---------------------------------|
B|---------------------------------|
G|---------------------------------|
D|-------------------5-4-----------|
A|--7-7--5-7---7-7-7-----7---------|
E|---------------------------------|


   4.52

e|------------------------------------------|
B|------------------------------------------|
G|-------9-9-------9-9-------9-9------------|
D|--2----9-9--2----9-9--2----9-9--2---------|
A|--2----7-7--2----7-7--2----7-7--2---------|
E|--0---------0---------0---------0---------|


   5.03

e|------------------------------------------------------------|
B|------------------------------------------------------------|
G|------------------7-7-7-7--9-9-------------------7--11-7--9-|
D|--2-2--5-2--7-7---7-7-7-7--9-9---2-2--5-2--7-7---7--11-7--9-|
A|--2-2--5-2--7-7---5-5-5-5--7-7---2-2--5-2--7-7---5--9--5--7-|
E|--0-0--3-0--5-5------------------0-0--3-0--5-5--------------|

   5.13

e|------------------------------------|
B|------------------------------------|
G|-------2-----4-4--------------------|
D|--4-4--2--4--4-4--2-2-2-2--4--------|
A|--4-4--0--4--2-2--2-2-2-2--4--------|
E|--2-2-----2-------0-0-0-0--2--------|


  5.30

e|-------------------------------|
B|-------------------------------|
G|----2-3-5-2-3----2-3-2---------|  X2
D|--5-2-3-5-2-3--5-2-3-2-3-5-----|
A|--5-0-1-3-0-1--5-0-1-0-3-5-----|
E|--3------------3-------1-3-----|

e|-----------------------------------------------|
B|-----------------------------------------------|
G|----------------------7------------------------|
D|--5-5--3-5-----7-9-10-7-9-10--2---7-9-10-9-5-7-|
A|--5-5--3-5-----7-9-10-5-9-10--2---7-9-10-9-5-7-|
E|--3-3--1-3-----5-7-8----7-8---0---5-7-8--7-3-5-|


e|-------------------------|
B|-------------------------|
G|-------------------------|
D|---------------4---------|
A|-------5-------4---------|
E|-5-7-8---8-7-5-2---------|

 5.49    
    F#m             Bm    Bm/D F#m     Bm               Bm D F#m
e|---------------------7--5-4---------7---7----9-10--7---------|
B|-2-7---7-9-10--7---7---------7-----------------------10-9--7-|
G|-------------------------------------------------------------|
D|-------------------------------------------------------------|
A|-------------------------------------------------------------|
E|-------------------------------------------------------------|

   6.11

e|----------------------------------------|
B|----------------------------------------|
G|--------2--4-----2---------2------------|  
D|--4--6--2--4--6--2---4--6--2--6--2--4---|
A|--4--6--0--2--6--0---4--6--0--6--2--4---|  End with F#m
E|--2--4--------4------2--4-----4--0--2---|





Comments


Popular Hans Zimmer tabs & chords
Gladiator Chords
An Ideal Of Hope Tabs
Duduk Of The North Tabs
Knights March Tabs
Nyah Tabs
One Simple Idea Tabs
Pearl Harbor Tennessee Tabs
Time Tabs
Why Do We Fall Tabs
Gladiator Theme Ukulele


Song lyrics



↑ Back to top | Tablatures and chords are parodies/interpretations of the original songs. You may use it for private study, scholarship, research or language learning purposes only
© 2014 AZChords.com Contact us | Privacy policy | DMCA | Add/correct tabs | Request tabs | Top 50 tabs