» » »

Hans Zimmer, One Simple Idea Tabs (ver.1)

Artists:  A B C D E F G H I J K L M N O P Q R S T U V W X Y Z # 

One Simple Idea Tabs (ver.1)

Hans Zimmer Tabs
Rating:
5/5 (3 votes)
One Simple Idea lessons Tabs too difficult? Try these video lessons and learn fast
                Hans Zimmer

Tuning: Standard

This track from the outstanding new movie "Inception" basically consists
of riffs oriented around Am and Gm. There are alternating patterns in
each chord's respective riffs. Johnny Marr plays the guitar in this track.

I put a "V" where the chord/key changes are, hopefully that helps. I also
indicated the octave change with a "*". When the octave changes, you can
play that part as I've tabbed it, or play the riff around the 5th fret.
It would look something like this:

e|--5-6---6-5---5-6---10-5----|
B|------8-----------8---------|
G|------------7------------7--|
D|----------------------------|
A|----------------------------|
E|----------------------------|

The above version might be easier to transfer to; going right up to
the 10th fret immediately is tough and the last Gm riffs were definitely
recorded separately. Also, I try to only barre the D G B and e strings
for the 10th fret Gm riff (makes it a bit easier to keep playing there
for the next minute). I'm fairly sure the way I've tabbed it is the way
Johnny plays it (the above doesn't ring out as well).

I was going to try to tab the brass and strings, but, even if I could tab
it out, I don't think I could do Hans Zimmer justice. This is a fun song
to play, I hope this is helpful guys, enjoy!


(with some delay)

0:00-0:12
e|--------------------0-----------------------0-----------------------0------|
B|----1-0-1-0---0-1-----0---0-1---1-0---0-1-----0---0-1---1-0---0-1-----0----|
G|--2---------------2-----------2-----------2-----------2-----------2--------|
D|------------2-----------2-----------2-----------2-----------2-----------2--|
A|---------------------------------------------------------------------------|
E|---------------------------------------------------------------------------|

0:13-0:25
e|--------------------0-----------------------0-----------------------0------|
B|--0-1---1-0---0-1-----0---0-1---1-0---0-1-----0---0-1---1-0---0-1-----0----|
G|------2-----------2-----------2-----------2-----------2-----------2--------|
D|------------2-----------2-----------2-----------2-----------2-----------2--|
A|---------------------------------------------------------------------------|
E|---------------------------------------------------------------------------|

0:26-0:37
e|--------------------0-----------------------0-----------------------0------|
B|--0-1---1-0---0-1-----0---0-1---1-0---0-1-----0---0-1---1-0---0-1-----0----|
G|------2-----------2-----------2-----------2-----------2-----------2--------|
D|------------2-----------2-----------2-----------2-----------2-----------2--|
A|---------------------------------------------------------------------------|
E|---------------------------------------------------------------------------|

0:38-0:50                   V
e|--------------------0------------------------------------------------------|
B|--0-1---1-0---0-1-----0---------3-----------------------3------------------|
G|------2-----------2-------2-3-0---2---2-3-0-3-2---2-3-0---2---2-3-0-3-2----|
D|------------2-----------2-----------0-----------0-----------0-----------0--|
A|---------------------------------------------------------------------------|
E|---------------------------------------------------------------------------|

0:51-1:03
e|---------------------------------------------------------------------------|
B|--------3-----------------------3-----------------------3-----------3------|
G|--2-3-0---2---2-3-0-3-2---2-3-0---2---2-3-0-3-2---2-3-0---2---2-3-0---2----|
D|------------0-----------0-----------0-----------0-----------0-----------0--|
A|---------------------------------------------------------------------------|
E|---------------------------------------------------------------------------|

1:04-1:16                                                                  V
e|---------------------------------------------------------------------------|
B|--------3-----------------------3-----------------------3-----------3------|
G|--2-3-0---2---2-3-0-3-2---2-3-0---2---2-3-0-3-2---2-3-0---2---2-3-0---2----|
D|------------0-----------0-----------0-----------0-----------0-----------0--|
A|---------------------------------------------------------------------------|
E|---------------------------------------------------------------------------|

1:17-1:29
e|--------------------0-----------------------0-----------------------0------|
B|--0-1---1-0---0-1-----0---0-1---1-0---0-1-----0---0-1---1-0---0-1-----0----|
G|------2-----------2-----------2-----------2-----------2-----------2--------|
D|------------2-----------2-----------2-----------2-----------2-----------2--|
A|---------------------------------------------------------------------------|
E|---------------------------------------------------------------------------|

1:30-1:34                  V
e|--------------------0------|
B|--0-1---1-0---0-1-----0----|
G|------2-----------2--------|
D|------------2-----------2--|
A|---------------------------|
E|---------------------------|

(add slight distortion)

1:35-1:42
e|-----------------------------10----------------------------------10--------|
B|--10-11----11-10----10-11-------10----10-11----11-10----10-11-------10-----|
G|--------12----------------12----------------12----------------12-----------|
D|-----------------12----------------12----------------12----------------12--|
A|---------------------------------------------------------------------------|
E|---------------------------------------------------------------------------|

1:43-1:50
e|-----------------------------10----------------------------------10--------|
B|--10-11----11-10----10-11-------10----10-11----11-10----10-11-------10-----|
G|--------12----------------12----------------12----------------12-----------|
D|-----------------12----------------12----------------12----------------12--|
A|---------------------------------------------------------------------------|
E|---------------------------------------------------------------------------|

1:51-1:59
e|-----------------------------10----------------------------------10--------|
B|--10-11----11-10----10-11-------10----10-11----11-10----10-11-------10-----|
G|--------12----------------12----------------12----------------12-----------|
D|-----------------12----------------12----------------12----------------12--|
A|---------------------------------------------------------------------------|
E|---------------------------------------------------------------------------|

2:00-2:07
e|-----------------------------10----------------------------------10--------|
B|--10-11----11-10----10-11-------10----10-11----11-10----10-11-------10-----|
G|--------12----------------12----------------12----------------12-----------|
D|-----------------12----------------12----------------12----------------12--|
A|---------------------------------------------------------------------------|
E|---------------------------------------------------------------------------|

2:08-2:16
e|-----------------------------10----------------------------------10--------|
B|--10-11----11-10----10-11-------10----10-11----11-10----10-11-------10-----|
G|--------12----------------12----------------12----------------12-----------|
D|-----------------12----------------12----------------12----------------12--|
A|---------------------------------------------------------------------------|
E|---------------------------------------------------------------------------|

2:17-2:28
e|-----------------------------10----------------------------------10--------|
B|--10-11----11-10----10-11-------10----10-11----11-10----10-11-------10-----|
G|--------12----------------12----------------12----------------12-----------|
D|-----------------12----------------12----------------12--------------------|
A|---------------------------------------------------------------------------|
E|---------------------------------------------------------------------------|
            

comments powered by Disqus
↑ Back to top | Hans Zimmer Tabs for One Simple Idea. Lyrics for acoustic guitar and electric guitar. Tablatures and chords are parodies/interpretations of the original songs. You may use it for private study, scholarship, research or language learning purposes only