>
 >
Kraken

Kraken Guitar Tabs

Hans Zimmer - Kraken chords, tabs, tablatures, lyrics

Guitar lessons | Add/correct | Request | Top 50 tabs Artists:  A B C D E F G H I J K L M N O P Q R S T U V W X Y Z 0-9

Kraken Guitar Tabs – Hans Zimmer

CD, Sheet music, Poster

Do you like Kraken? Share with your friends now
Tabs


arrangement for guitar solo

Mucho Distortion por favor

0:00
e|-------------------------------------------|\
b|-------------------------------------------| \
g|-------------------------------------------|  \
d|0-0-3-0---0-10p9---0--00-3-0--0-9h10-------|   \
a|0-0-3-0---0-10p9---0--00-3-0--0-9h10-------|
D|0-0-3-0---0-10p9---0--00-3-0--0-9h10-------|
                                                  x3
e|-------------------------------------------|
b|-------------------------------------------|
g|-------------------------------------------|   /
d|0-0-3-0---0-10p9---000--3-0--9h10-10/12----|  /
a|0-0-3-0---0-10p9---000--3-0--9h10-10/12----| /
D|0-0-3-0---0-10p9---000--3-0--9h10-10/12----|/

0:33
e|-------------------------------------|
b|-------------------------------------|
g|-------------------------------------|
d|0-0-3-0---0-10p9--0--00-3-0--0-9h10--|
a|0-0-3-0---0-10p9--0--00-3-0--0-9h10--|
D|0-0-3-0---0-10p9--0--00-3-0--0-9h10--|

e|------------------|
b|------------------|
g|------------------|
d|0-0-3-0---0-10p9--|
a|0-0-3-0---0-10p9--|
D|0-0-3-0---0-10p9--|

0:41
e|---------------------------------------------------------------|
b|---------------------------------------------------------------|
g|---------------------------------------------------------------|
d|101010-0-999-0-121212-0-777-0-----101010-0-999-0-555-0-777-0---|
a|101010-0-999-0-121212-0-777-0-----101010-0-999-0-555-0-777-0---|
D|101010-0-999-0-121212-0-777-0-----101010-0-999-0-555-0-777-0---|

e|---------------------------------------------------------------|
b|---------------------------------------------------------------|
g|---------------------------------------------------------------|
d|101010-0-999-0-121212-0-777-0-----101010-0-999-0-555-0-333-2---|
a|101010-0-999-0-121212-0-777-0-----101010-0-999-0-555-0-333-2---|
D|101010-0-999-0-121212-0-777-0-----101010-0-999-0-555-0-333-2---|

0:57
e|-------------------------------------------|
b|-------------------------------------------|
g|-------------------------------------------|
d|0-0-3-0---0-10p9---0--00-3-0--0-9h10-------|
a|0-0-3-0---0-10p9---0--00-3-0--0-9h10-------|
D|0-0-3-0---0-10p9---0--00-3-0--0-9h10-------|

e|------------------------------------------|
b|------------------------------------------|
g|------------------------------------------|
d|000-3-0---0-10p9---000--3-0---9h0-10/12---|
a|000-3-0---0-10p9---000--3-0---9h0-10/12---|
D|000-3-0---0-10p9---000--3-0---9h0-10/12---|

1:08
e|-------------------------------------|
b|-------------------------------------|
g|-------------------------------------|
d|000----0-0----000---0-0-0------------|
a|000----0-0----000---0-0-0------------|
D|000----0-0----000---0-0-0------------|
 pm========================|
e|-------------------------------------|
b|-------------------------------------|
g|-------------------------------------|
d|000----0-0----000---00-0-0-----------|
a|000----0-0----000---00-0-0-----------|
D|000----0-0----000---00-0-0-----------|
 pm==========================|

1:18
e|-------------------------------------|
b|-------------------------------------|
g|-------------------------------------|
d|0~~~-2~-3~~~~~-0-8~~~~~-5~-7~~~~-----|
a|0~~~-2~-3~~~~~-0-8~~~~~-5~-7~~~~-----|
D|0~~~-2~-3~~~~~-0-8~~~~~-5~-7~~~~-----|

Then add second guitar:
1:29
          e|-------------------------------------------------------------|
          b|10p8h10~8--------------------8p7h8-----------------10-8------|
          g|---------10-9-7p6h7~~~9-10-7-------10-9-7---------------10-9-|
Guitar 1: d|------------------------------------------11p9h11~~----------|
          a|-------------------------------------------------------------|
          D|-------------------------------------------------------------| x4

          e|-------------------------------------------------------------|
          b|-------------------------------------------------------------|
          g|-------------------------------------------------------------|
Guitar 2: d|0~~~~~~~~-2~~-3~~~~~~~~~~~-0-8~~~~~~~~-5~-7~~~~~~~~~~--------|
          a|0~~~~~~~~-2~~-3~~~~~~~~~~~-0-8~~~~~~~~-5~-7~~~~~~~~~~--------|
          D|0~~~~~~~~-2~~-3~~~~~~~~~~~-0-8~~~~~~~~-5~-7~~~~~~~~~~--------| x4

2:12
e|-------------------------------------|
b|-------------------------------------|
g|-------------------------------------|
d|0-0----0-0----0-0---0----------------|
a|0-0----0-0----0-0---0----------------|
D|0-0----0-0----0-0---0----------------|
 pm====================|
e|-------------------------------------|
b|-------------------------------------|
g|-------------------------------------|
d|000----0-0----0-0---0----------------|
a|000----0-0----0-0---0----------------|
D|000----0-0----0-0---0----------------|
 pm====================|

2:22
e|-------------------------------------|
b|-------------------------------------|
g|-------------------------------------|
d|0-0-3-0---0-10p9--0--00-3-0--0-9h10--|
a|0-0-3-0---0-10p9--0--00-3-0--0-9h10--|
D|0-0-3-0---0-10p9--0--00-3-0--0-9h10--|

e|------------------|
b|------------------|
g|------------------|
d|0-0-3-0---0-10p9--|
a|0-0-3-0---0-10p9--|
D|0-0-3-0---0-10p9--|

2:30
e|--------------------------------------------------------------|
b|--------------------------------------------------------------|
g|--------------------------------------------------------------|
d|101010-0-999-0-121212-0-777-0----101010-0-999-0-555-0-777-0---|
a|101010-0-999-0-121212-0-777-0----101010-0-999-0-555-0-777-0---|
D|101010-0-999-0-121212-0-777-0----101010-0-999-0-555-0-777-0---|

e|--------------------------------------------------------------|
b|--------------------------------------------------------------|
g|--------------------------------------------------------------|
d|101010-0-999-0-121212-0-777-0----101010-0-999-0-555-0-333-2---|
a|101010-0-999-0-121212-0-777-0----101010-0-999-0-555-0-333-2---|
D|101010-0-999-0-121212-0-777-0----101010-0-999-0-555-0-333-2---|

*rest*

2:52
e|----------------------------------------------------|
b|----------------------------------------------------|
g|---------------------------------------------5-5-5--|
d|0---0-0---0-0---0--1-1-1--0---0-0---0-0---0--5-5-5--|
a|0---0-0---0-0---0--1-1-1--0---0-0---0-0---0--3-3-3--|
D|0---0-0---0-0---0--1-1-1--0---0-0---0-0---0---------| x3

e|------------------------------------------------------------|
b|------------------------------------------------------------|
g|------------------------------------------------------------|
d|0---0-0---0-0---0--1-1-1--0---0-0---0-0---0--3-3-3-6~~~~~~~-|
a|0---0-0---0-0---0--1-1-1--0---0-0---0-0---0--3-3-3-6~~~~~~~-|
D|0---0-0---0-0---0--1-1-1--0---0-0---0-0---0--3-3-3-6~~~~~~~-|

3:17**
e|--------------------------------|
b|--------------------------------|
g|--------------------------------|
d|0h3h7\6-0h3h7\6-0h3h7\6-x--x--x-|
a|0h3h7\6-0h3h7\6-0h3h7\6-x--x--x-|
D|0h3h7\6-0h3h7\6-0h3h7\6-x--x--x-| x4

**these hammer-ons are fast triplets

3:28
e|---------------------------------------|
b|---------------------------------------|
g|7-6\-----7-6\-----7-6\-----------------|
d|7-6\-1~~-7-6\-3~~-7-6\-1-0-3-5~~-321---|
a|5-4\-1~~-5-4\-3~~-5-4\-1-0-3-5~~-321---|
D|-----1~~------3~~------1-0-3-5~~-321---|
                                 pm===|

3:38
e|------------------------------------------------------------------|
b|------------------------------------------------------------------|
g|------------------------------------------------------------------|
d|0-0---0-1-1---1-3-3---3--4-6-8-----0-0---0-1-1---1-3-3---3--4-3-1-|
a|0-0---0-1-1---1-3-3---3--4-6-8-----0-0---0-1-1---1-3-3---3--4-3-1-|
D|0-0---0-1-1---1-3-3---3--4-6-8-----0-0---0-1-1---1-3-3---3--4-3-1-|
pm=================================================================|

e|------------------------------------------------------|
b|------------------------------------------------------|
g|------------------------------------------------------|
d|0-0---0-1-1---1-3-3---3--4-6-8-----0-0---0-1-1---1-3--|
a|0-0---0-1-1---1-3-3---3--4-6-8-----0-0---0-1-1---1-3--|
D|0-0---0-1-1---1-3-3---3--4-6-8-----0-0---0-1-1---1-3--|
pm====================================================|

*rest*

3:50
e|------------------------------------------------|
b|------------------------------------------------|
g|5/7-777--710-777--------------------------------|
d|5/7-777--710-777--3-21-0--0-0-00---3-5---3-2----|
a|3/5-555--58--555--3-21-0--0-0-00---3-5---3-2----|
D|------------------3-21-0--0-0-00---3-5---3-2----| x2

e|-----------------------|
b|-----------------------|
g|5/7-777--710-777-------|
d|5/7-777--710-777--3-21-|
a|3/5-555--58--555--3-21-|
D|------------------3-21-|

4:04
e|-------------------------------------------|
b|-------------------------------------------|
g|-------------------------------------------|
d|5~~~-1~~~-0~~~-6~~~---5~~~-1~~~-0~~~-3~~~--|
a|5~~~-1~~~-0~~~-6~~~---5~~~-1~~~-0~~~-3~~~--|
D|5~~~-1~~~-0~~~-6~~~---5~~~-1~~~-0~~~-3~~~--|


e|--------------------------------------------------------|
b|--------------------------------------------------------|
g|--------------------------------------------------------|
d|5--1--0--6--5--1--0--6---5-1-0-6-5-1-0-6-4~~~~~~~~~~~~--|
a|5--1--0--6--5--1--0--6---5-1-0-6-5-1-0-6-4~~~~~~~~~~~~--|
D|5--1--0--6--5--1--0--6---5-1-0-6-5-1-0-6-4~~~~~~~~~~~~--|

4:28
e|------------------------------------------------------------|
b|------------------------------------------------------------|
g|------------------------------------------------------------|
d|5-3-1-0---5-3-1-0---5-3-1-0---5-3-1-0---5-3-1-0---5-3-1-0---|
a|5-3-1-0---5-3-1-0---5-3-1-0---5-3-1-0---5-3-1-0---5-3-1-0---|
D|5-3-1-0---5-3-1-0---5-3-1-0---5-3-1-0---5-3-1-0---5-3-1-0---|

e|------------------------------------|
b|------------------------------------|
g|5-5-5-------------------------------|
d|5-5-5-5-5-5-1-1-1-8-8-8-6-6-1-1-----|
a|3-3-3-5-5-5-1-1-1-8-8-8-6-6-1-1-----|
D|------5-5-5-1-1-1-8-8-8-6-6-1-1-----|

e|----------------------------------------------|
b|----------------------------------------------|
g|5-5-5-----------------------------------------|
d|5-5-5-5-5-5-1-1-1-8-8-8-6-1-1-1-1-1h3-3-3-----|
a|3-3-3-5-5-5-1-1-1-8-8-8-6-1-1-1-1-1h3-3-3-----|
D|------5-5-5-1-1-1-8-8-8-6-1-1-1-1-1h3-3-3-----|

4:45
e|------------------------------------------------|
b|------------------------------------------------|
g|5/7-777--710-777--------------------------------|
d|5/7-777--710-777--3-21-0--0-0-00---3-5---3-2----|
a|3/5-555--58--555--3-21-0--0-0-00---3-5---3-2----|
D|------------------3-21-0--0-0-00---3-5---3-2----| x2

e|---------------------------------------------------------------|
b|---------------------------------------------------------------|
g|---------------------------------------------------------------|
d|101010-0-999-0-121212-0-777-0-----101010-0-999-0-555-0-777-0---|
a|101010-0-999-0-121212-0-777-0-----101010-0-999-0-555-0-777-0---|
D|101010-0-999-0-121212-0-777-0-----101010-0-999-0-555-0-777-0---|

e|---------------------------------------------------------------|
b|---------------------------------------------------------------|
g|---------------------------------------------------------------|
d|1010-99-1212-77--1010-99-1212-77--101099121277--101099121277---|
a|1010-99-1212-77--1010-99-1212-77--101099121277--101099121277---|
D|1010-99-1212-77--1010-99-1212-77--101099121277--101099121277---|


5:11***
e|--------------------------------|
b|--------------------------------|
g|--------------------------------|
d|0h3h7\6-0h3h7\6-0h3h7\6-x--x--x-|
a|0h3h7\6-0h3h7\6-0h3h7\6-x--x--x-|
D|0h3h7\6-0h3h7\6-0h3h7\6-x--x--x-| x4

e|---------------------------------------|
b|---------------------------------------|
g|---------------------------------------|
d|5/8h12\11-5/8h12\11-5/8h12\11--x--x--x-|
a|5/8h12\11-5/8h12\11-5/8h12\11--x--x--x-|
D|5/8h12\11-5/8h12\11-5/8h12\11--x--x--x-| x4

e|--------------------------------|
b|--------------------------------|
g|--------------------------------|
d|0h3h7\6-0h3h7\6-0h3h7\6-x--x--x-|
a|0h3h7\6-0h3h7\6-0h3h7\6-x--x--x-|
D|0h3h7\6-0h3h7\6-0h3h7\6-x--x--x-| x4
***these hammer-ons and slides are fast triplets

5:43
e|-----------------------------------------------------------|
b|-----------------------------------------------------------|
g|-----------------------------------------------------------|
d|10---9-9--12---7-7--10---9-9--10---10-9-7-5-3--10-9-7-5-3--|
a|10---9-9--12---7-7--10---9-9--10---10-9-7-5-3--10-9-7-5-3--|
D|10---9-9--12---7-7--10---9-9--10---10-9-7-5-3--10-9-7-5-3--|

e|---------------------------------------------------------------|
b|---------------------------------------------------------------|
g|---------------------------------------------------------------|
d|101010-0-999-0-121212-0-777-0-----101010-0-999-0-555-0-777-0---|
a|101010-0-999-0-121212-0-777-0-----101010-0-999-0-555-0-777-0---|
D|101010-0-999-0-121212-0-777-0-----101010-0-999-0-555-0-777-0---|

e|---------------------------------------------------------------|
b|---------------------------------------------------------------|
g|---------------------------------------------------------------|
d|101010-0-999-0-121212-0-777-0-----101010-0-999-0-555-0-333-2---|
a|101010-0-999-0-121212-0-777-0-----101010-0-999-0-555-0-333-2---|
D|101010-0-999-0-121212-0-777-0-----101010-0-999-0-555-0-333-2---|

6:10
e|------------------------|
b|------------------------|
g|------------------------|
d|7-8p7-5-7p5-3-5p3-2-3p2-|
a|7-8p7-5-7p5-3-5p3-2-3p2-|
D|7-8p7-5-7p5-3-5p3-2-3p2-|

6:13
          e|-------------------------------------------------------------|
          b|10p8h10~8--------------------8p7h8-----------------10-8------|
          g|---------10-9-7p6h7~~~9-10-7-------10-9-7---------------10-9-|
Guitar 1: d|------------------------------------------11p9h11~~----------|
          a|-------------------------------------------------------------|
          D|-------------------------------------------------------------| x2

          e|-------------------------------------------------------------|
          b|-------------------------------------------------------------|
          g|-------------------------------------------------------------|
Guitar 2: d|0~~~~~~~~-2~~-3~~~~~~~~~~~-0-8~~~~~~~~-5~-7~~~~~~~~~~--------|
          a|0~~~~~~~~-2~~-3~~~~~~~~~~~-0-8~~~~~~~~-5~-7~~~~~~~~~~--------|
          D|0~~~~~~~~-2~~-3~~~~~~~~~~~-0-8~~~~~~~~-5~-7~~~~~~~~~~--------| x2

e|------------------|
b|------------------|
g|------------------|
d|0~~~~~~~~~~~~~----|
a|0~~~~~~~~~~~~~----|
D|0~~~~~~~~~~~~~----|

Slowly add palm muting to last chord

| /  slide up
| \  slide down
| h  hammer-on
| p  pull-off
| ~  Let note ring
| +  harmonic
| x  Mute note





Comments


Popular Hans Zimmer tabs & chords
Now We Ride Rango Chords
Hes A Pirate 1 Tabs
Jack Sparrow Intro Tabs
Knights March Tabs
One Simple Idea Tabs
Pirates Of The Caribbean Theme Tabs
Time 1 Tabs
We Will Go Home Tabs
Gladiator Ukulele
Leave No Man Behind Ukulele


Song lyrics



↑ Back to top | Tablatures and chords are parodies/interpretations of the original songs. You may use it for private study, scholarship, research or language learning purposes only
© 2014 AZChords.com Contact us | Privacy policy | DMCA | Add/correct tabs | Request tabs | Top 50 tabs