» » »

Hanoi Rocks, Up Around The Bend Tabs (ver.1)

Artists:  A B C D E F G H I J K L M N O P Q R S T U V W X Y Z # 

Up Around The Bend Tabs (ver.1)

Hanoi Rocks Tabs
 Rating:
4/5 (8 votes)
Up Around The Bend lessons Tabs too difficult? Try these video lessons and learn fast
                

Intro Riff
  
C                               G             C
|------8-------|-------8-------|------3-------|------8---------|
|--------8---8-|---------8---8-|--------3---3-|--------8---9---|
|-5--9-----9---|--5--9-----9---|-0--4-----4---|-5--9-----9-----|
|--------------|---------------|--------------|----------------|
|--------------|---------------|--------------|----------------|
|--------------|---------------|--------------|----------------|

Verse

C                                       G                           C
There's a place up ahead and I'm goin', Just as fast as my feet can fly
C                                        G                       C
Come away, come away, if you're goin', Leave the sinkin' ship behind


Bridge
|----------------------------|----------------------|
|----------------------------|----------------------|
|----------------------------|----------------------|
|-----5---------------3------|-----5----------------|
|-3-3-3-2---5-5-----5---7-5--|-3-3-3-2---5-5-5-5----|
|-1-1-----5-3-3-5-7----------|-1-1-----5-3-3-3-3----|


Verse
Bridge
Intro Riff

Verse
D                                A                          D
You can ponder perpetual motion, Fix your mind on a crystal day
D                                    A                           D
Always time for a good conversation, There's an ear for what you say



Bridge
|-----------------------------|--------------------------------------|
|-----------------------------|--------------------------------------|
|-----------------------------|--------------------------------------|
|-----7----------------5------|-----7--------------------------------|
|-5-5-5-4---7-7------7---9-7--|-5-5-5-4---7-7-7-7-7-5-4---5-4---5-4--|
|-3-3-----7-5-5--7-9----------|-3-3-----7-5-5-5-5-5-----5-----5------|


Chorus
|----------------------------------------------------|
|----------------------------------------------------|
|-2-2-4-2-2-4-2-2-4-2-2-4-------------------2-2-4----|
|-0-0-0-0-0-0-0-0-0-0-0-0-2-2-4-2-2-4-2-2-4-0-0-0----|
|-------------------------0-0-0-0-0-0-0-0-0----------|
|----------------------------------------------------|


After chorus comes this
|----------------------|
|----------------------|
|----------------------|
|-------5-5-5----------|
|-3-3-3-3-3-3-5-5-5----|
|-1-1-1-------3-3-3----|

Chorus
            
Submit corrections

comments powered by Disqus
↑ Back to top | Hanoi Rocks Tabs for Up Around The Bend. Lyrics for acoustic guitar and electric guitar. Tablatures and chords are parodies/interpretations of the original songs. You may use it for private study, scholarship, research or language learning purposes only