>
 >
Underwater World

Underwater World Guitar Tabs

Hanoi Rocks - Underwater World chords, tabs, tablatures, lyrics

Guitar lessons | Add/correct | Request | Top 50 tabs Artists:  A B C D E F G H I J K L M N O P Q R S T U V W X Y Z 0-9

Underwater World Guitar Tabs – Hanoi Rocks

CD, Sheet music, Poster

Do you like Underwater World? Share with your friends now
Tabs
Hanoi Rocks - Underwater World (Ian Hunter, Andy McCoy)

Riff A:                        3rd  time end    5th time end
|----------------------|     |----------------| |----------------|
|------0--3---3p0------|     |--0--3---3---3--| |-9h7p9h7p9h7\---|
|----0------------0----| 5x  |--0--4---4---4--| |----------------|
|--2---------------2---|     |--2-------------| |----------------|
|----------------------|     |----------------| |----------------|
|----------------------|     |----------------| |----------------|

Riff B:
|-----------------------|
|-------3--------6h5p6--|
|-------2---------------|
|--0-0-----0-0----------|
|-----------------------|
|-----------------------|


Riff A
Verse:
Em
Beneath the streets, in the cars, on the trains, or in the underground, I'll 
          Em D Em
be waiting 
Em
You can spare a dime, or you're gonna be mine and We're going dancing 
        Em D Em
tonight 
Em                                                                   Em D Em
In the tunnels underground the subway rats run all around, and hungry 
Em                                                           Em D Em
So come and hide, step inside, we're going on a midnight ride 

Riff A

Em
On the subway underground it gets, a little rough, this ain't No tunnel of 
   Em D Em
love
Em                                                                  Em D Em
Hurricanes running through my veins, I know that You're lost and alone 
   Am  Riff B
And I feel no pain, In my sea of drains, 
                      Riff A
In my my underwater world 

Chorus:
   C             D       G            A      C             D      G
Welcome to the ocean, Welcome to the sea, Welcome to the jungle, Deep inside 
    A
of me

Riff C:
|------------------------------------|
|-----------------------3--------3---|
|----------------0-0-3h4--0-0-3h4----|
|-----0-2-3--------------------------|
|--3---------3-----------------------|
|------------------------------------|

Solo:
|------------------------------------13b----13b----13b----13b----13b-------|
|----------5----------5---------5-------13b----13b----13b----13b----13b----|
|--------------------------------------------------------------------------|
|--5-5-5h7----5-5-5h7---5-5-5h7--------------------------------------------|
|--------------------------------------------------------------------------|
|--------------------------------------------------------------------------|

|--13b----13b----13b----------------------------13b----13b-----13b---------|
|-----13b----13b----13b-------2b-2p0h2p0------------13b----13b----13b------|
|--------------------------0--2b-2p0h2p0-----------------------------------|
|-----------------------------------------1h2~-----------------------------|
|--------------------------------------------------------------------------|
|--------------------------------------------------------------------------|

|--13b-----17b----17b-----20b-----20b--------------------------------------|
|------13b---17b----17b-----20b-----20b-------2b-2p0h2p0-------------------|
|------------------------------------------0--2b-2p0h2p0-------------------|
|---------------------------------------------------------1h2~-------------|
|--------------------------------------------------------------------------|
|--------------------------------------------------------------------------|

|----------------------------------------15b-15p12-------------------------|
|--------------------------------------------------15-12~------------------|
|--5b---5b-----------------------------------------------------------------|
|-----7----7-5-3-0~--------2-----------------------------------------------|
|--------------------4-0h2-------------------------------------------------|
|----------------------------2~-2~-----------------------------------------|


|--------------------------------------------------------------------------|
|--0h2p0h2p1h3p1h3p2h4p2h4p3h5p3h5p4h6p4h6p5h7p5h7p6h8p6h8p7h9p7h9p8h10p8h-|
|--------------------------------------------------------------------------|
|--------------------------------------------------------------------------|
|--------------------------------------------------------------------------|
|--------------------------------------------------------------------------|

|--------------------------------------------------------------------------|
|--h10p9h11p9h11p10h12p10h12p11h13p11h13p12h14p12h14p13h15p13h15p14h16p14h-|
|--------------------------------------------------------------------------|
|--------------------------------------------------------------------------|
|--------------------------------------------------------------------------|
|--------------------------------------------------------------------------|

|--------------------------------------------------------------------------|
|--h16p15h17p15h17p16h18p16h18-18b-----------------------------------------|
|--------------------------------------------------------------------------|
|--------------------------------------------------------------------------|
|--------------------------------------------------------------------------|
|--------------------------------------------------------------------------|

Riff A

Verse:

Em
Sink or swim, you dive right in and you, Know this ain't no place to mess 
        Em D Em
around in 
Em                                                         Em D Em
In my swamp underground the quicksand slowly Sucks you down 
Em                                                               Em D Em
Down here I call the shots, like it or not, What you got I'm getting, 
Em                                                                                    
You have to come down to my slum Well Welcome Chum, Now sit down
           Em D Em
and shut up 

Riff A

Chorus:

   C             D       G            A      C             D      G
Welcome to the ocean, Welcome to the sea, Welcome to the jungle, Deep inside 
    A
of me
  C             D     G                    A
I lay you wide open, For all the world to see

Riff C:
|------------------------------------|
|-----------------------3--------3---|
|----------------0-0-3h4--0-0-3h4----|
|-----0-2-3--------------------------|
|--3---------3-----------------------|
|------------------------------------|

Riff A
My-my-my underwater world, my-my-my underwater world

Outro:
|-------------------------------------|
|-------------------------------------|
|-------------------------------------|
|--------5-------5-------5------------| x3
|--5-5h7---5-5h7---5-5h7----3-3/5-----|
|-------------------------------------|
                                              Fade out
|---------------------------------------------------------|
|---------------------------------------------------------|
|---------------------------------------------------------|
|--------5-------5-------5-------5-------5-------5--------|
|--5-5h7---5-5h7---5-5h7---5-5h7---5-5h7---5-5h7----------|
|---------------------------------------------------------|





Comments


Popular Hanoi Rocks tabs & chords
Boulevard Of Broken Dreams Chords
Don't You Ever Leave Me Tabs
Don't You Ever Leave Me 1 Tabs
Fashion Tabs
I Want You Tabs
Million Miles Away Tabs
No Law Or Order Intro Tabs
Up Around The Bend Tabs
Boulevard Of Broken Dreams Ukulele
Fashion Ukulele


Song lyrics



↑ Back to top | Tablatures and chords are parodies/interpretations of the original songs. You may use it for private study, scholarship, research or language learning purposes only
© 2014 AZChords.com Contact us | Privacy policy | DMCA | Add/correct tabs | Request tabs | Top 50 tabs