>
 >
I Can't Get It

I Can't Get It Guitar Tabs

Hanoi Rocks - I Can't Get It chords, tabs, tablatures, lyrics

Guitar lessons | Add/correct | Request | Top 50 tabs Artists:  A B C D E F G H I J K L M N O P Q R S T U V W X Y Z 0-9

I Can't Get It Guitar Tabs – Hanoi Rocks

CD, Sheet music, Poster

Do you like I Can't Get It? Share with your friends now
Tabs
Hanoi Rocks - I Can't Get It (Andy McCoy, Bob Ezrin, Ian Hunter)
Two Steps From The Move (1984)

Intro:
|--------------------------------|
|--------------------------------|
|--------------------------------|
|--4-----------7-----------------|    X3
|--2--4--------5--7--------------|
|-----2-----------5--------------|


|--------|
|--------|
|--------|
|--4-----|
|--2--4--|
|-----2--|


|--------------------------------|
|--12-12h10--10----12-12h10--10--|
|----------11--11----------11--11|
|--------------------------------|
|--------------------------------|
|--------------------------------|

1 & 3 repeat    2 repeat    
|--------|      |--------|
|--------|      |--------|
|--------|      |--------|
|--7-----|      |--4-----|
|--5--7--|      |--2--4--|
|-----5--|      |-----2--|

|------------------13b-----------|
|--12-12h10--10--10--------------|
|----------11--11----------------|
|--------------------------------|
|--------------------------------|
|--------------------------------|


Verse:
|--------------------------------|
|--------------------------------|
|--------------------------------|
|--4-----------7-----------------|    X4
|--2--4--------5--7--------------|
|-----2-----------5--------------|


|--------------------------------|
|--------------------------------|
|--------------------------------|
|--4--6--------------------------|
|--2--4--4--2--------------------|
|--------2--0--------------------|

                                          2 verse 3 repeat
|--3--3--3-3-3--3-3-3------------|      |--3--3--3-3-3--3-3-3------------|
|--3--3--3-3-3--3-3-3------------|      |--3--3--3-3-3--3-3-3------------|
|--------------------------------|      |--------------------------------|
|--------------------4-6---------|   X3 |--------------------------------|
|--------------------2-4-4-2-----|      |----------------------4-2-------|
|------------------------2-0-----|      |----------------------2-0-------|

Verse

Chorus:                1 repeat                2 repeat
|-------------|     |----------------|      |----------------|
|--3--3--2----|     |----------------|      |----------------|
|--2--2--2----|     |----------------|      |----------------|
|--0--0--0----|     |------4---------|      |------7---------|
|-------------|     |------2--4------|      |------5--7------|
|-------------|     |---------2------|      |---------5------|

|--------------------------------|
|--------------------------------|
|--------------------------------|
|--4-----------7-----------------|    X2
|--2--4--------5--7--------------|
|-----2-----------5--------------|

Interlude:
|-------------|
|-------------|
|-------------|
|--4----------|
|--2--4-------|
|-----2-------|

Guitar solo

Chorus

|--------------------------------|
|--------------------------------|
|--------------------------------|
|--4-----------7-----------------|    X4
|--2--4--------5--7--------------|
|-----2-----------5--------------|

Speak

Outro:
|--------------------------------|
|--12-12h10--10----12-12h10--10--|
|----------11--11----------11--11|
|--------------------------------|
|--------------------------------|
|--------------------------------|

1 & 3 repeat    2 repeat
|--------|      |--------|
|--------|      |--------|
|--------|      |--------|
|--7-----|      |--4-----|
|--5--7--|      |--2--4--|
|-----5--|      |-----2--|


|--------|
|--------|
|--------|
|--------|
|--4-4---|
|--2-2---|





Comments


Popular Hanoi Rocks tabs & chords
Up Around The Bend Bass Tabs
New York City Chords
Don't You Ever Leave Me Tabs
Don't You Ever Leave Me 1 Tabs
Fashion Tabs
I Want You Tabs
Motorvatin' Tabs
Up Around The Bend Tabs
New York City Ukulele
Obscured Ukulele


Song lyrics



↑ Back to top | Tablatures and chords are parodies/interpretations of the original songs. You may use it for private study, scholarship, research or language learning purposes only
© 2014 AZChords.com Contact us | Privacy policy | DMCA | Add/correct tabs | Request tabs | Top 50 tabs