>
 >
Sleigh Ride

Sleigh Ride Bass Tabs

Hamm Stu - Sleigh Ride chords, tabs, tablatures, lyrics

Guitar lessons | Add/correct | Request | Top 50 tabs Artists:  A B C D E F G H I J K L M N O P Q R S T U V W X Y Z 0-9

Sleigh Ride Bass Tabs – Hamm Stu

CD, Sheet music, Poster

Do you like Sleigh Ride? Share with your friends now
Bass TabsBass Tabs v2Tabs
Bass Tablature for SLEIGH RIDE----Stu Hamm----Merry Axemas Vol.2

h = hammer on
p = pull off
/ = slide up
\ = slide down


G--17-17-17-19-17-17------------------14-15-17p15-19-20-21-15------------------12-14-22------|
D--17----------16----13------------12---------------------------------------10---------------|
A--15----------15----------11-9-10----------------------------15--------3/8---------------3..|
E----------------------------------------------------------------15\8------------------------|
B--------------------------------------------------------------------------------------------|

G--5-5-5-5-7-5-------------------------------2h3-5-7-5---------------------|
D--------------7p5p0-5-7-5-------------2h3h5-----------7p5p0-5-5h7p5-----3-|
A--------------------------7p5-3---3h5-------------------------------7-5---|
E--------------------------------------------------------------------------|
B--------------------------------------------------------------------------|

G--5---5-5-5-5h7-7-5-------------------------------2h3-5-5-5h7-5-----------0-----0-----0-----|
D--------------------7p5p0-5-5-5-------------2h3h5---------------7p5p0-3h4---3h4---3h4---0-3-|
A--------------------------------7p5-3---3h5-------------------------------------------------|
E--------------------------------------------------------------------------------------------|
B--------------------------------------------------------------------------------------------|

G-----------14-------14-------14/16-13----14-13-------11---14-13-------------14-13-16----|
D--12p11h12----11h12----11h12-------------------14p11------------14p11-14/16----------14-|
A----------------------------------------------------------------------------------------|
E----------------------------------------------------------------------------------------|
B----------------------------------------------------------------------------------------|

G-----------13h14-16-14-13------------------------12-12------12-12------12/14-11-|
D--13h14h16----------------16-14-13----------9h10-------9h10-------9h10----------|
A-----------------------------------16-14-13-------------------------------------|
E--------------------------------------------------------------------------------|
B--------------------------------------------------------------------------------|

G---11/12-11------9\-----5----------5---------5-----5/17-17-17-17-17-19p17-------|
D------------12p9----------5-0--3h5---5-3-3h5---5--------------------------19p17-|
A-----------------------------3-------------------3------------------------------|
E--------------------------------------------------------------------------------|
B--------------------------------------------------------------------------------|

G-----------------------------------------14h15-17-19-17-----------------------------------17-|
D---17-17h19p17------------------14h15h17----------------19p17--17-17h19p17-------15-15/19----|
A---------------19p17-15---15h17--------------------------------------------19p17-------------|
E---------------------------------------------------------------------------------------------|
B---------------------------------------------------------------------------------------------|

G-----17-17-17-17-17h19p17-----------------------------------------------2h3--|
D--19----------------------19p17--17-17-17-19-17-------------------2h3h5------|
A------------------------------------------------19p17-15------3h5------------|
E-----------------------------------------------------------------------------|
B-----------------------------------------------------------------------------|

G--5-7-5------------------------------2-3-2---------------------------|
D--------7p5p0-5-5-5h7p5-----3----3-5-------5-3-5---0-2-3-5-0--2------|
A------------------------7p5-------------------------------------3\---|
E---------------------------------------------------------------------|
B---------------------------------------------------------------------|

G--------15-17-19-21-22-24----21-22-23-24----17/19--19\17--10/12--12\10---9h10-10-10-10-12-14-|
D--15-17--------------------------------------------------------------------------------------|
A---------------------------------------------------------------------------------------------|
E---------------------------------------------------------------------------------------------|
B---------------------------------------------------------------------------------------------|

G--10-9-10-10---------------------------------10-9-------10-9----------10/22-22-21-21-19-19-|
D-------------12-10-12-12--10----10-------10-------12-10------12p11-10----------------------|
A-----------------------------12----12p10---------------------------------------------------|
E-------------------------------------------------------------------------------------------|
B-------------------------------------------------------------------------------------------|

G--17h19p17----17--17h19p17----17--17h19p17----17--17h19p17----17-22-|
D-----------19--------------19--------------19--------------19-------|
A--------------------------------------------------------------------|
E--------------------------------------------------------------------|
B--------------------------------------------------------------------|





G--12h13-12-13-13----------------------19--18-16-18-16--11-13-14--13-11-13-11-----------|
D-----------------15-13-15-13----15\------------------------------------------11-12-14--|
A-----------------------------15--------------------------------------------------------|
E---------------------------------------------------------------------------------------|
B---------------------------------------------------------------------------------------|
                                               {----FAST---}
G--------------------------9-------9------------16--------------------------11-12-14\-|
D--12-11-12-11-------10/11---10/11---10/11\--------14-----------------12-14-----------|
A--------------12-14----------------------------------16-14--12-14-15-----------------|
E-------------------------------------------------------------------------------------|
B-------------------------------------------------------------------------------------|

G----------12-14\-------------------------------------------------9h10p9-10-12-10-12-14-15--|
D--11-9-11--------11p10-9----------------------------7h8p7-8h10p8---------------------------|
A---------------------------------------7h8p7-8h10p8----------------------------------------|
E--------------------------7h8p7-8h10p8-----------------------------------------------------|
B-------------------------------------------------------------------------------------------|

G--17-17-17-17-17-17-17-17-17---------------22-22-22-20-20-17-17-15-15--|
D-----------------------------19-17----17-------------------------------|
A-----------------------------------19----------------------------------|
E-----------------------------------------------------------------------|
B-----------------------------------------------------------------------|

G--15----15/17-15----------------------17-17-17-17-19-17---------------------------|
D-----17----------17-15--13-15-13-15/--------------------19-17-15--17-19-17--------|
A---------------------------------------------------------------------------19-17--|
E----------------------------------------------------------------------------------|
B----------------------------------------------------------------------------------|

G-------------------------------2h3-5-7-5------------------------|
D-------------------------2h3h5-----------7p5p0-5-5-5h7-5-----3--|
A--15-15-15-15-15-15--3h5---------------------------------7p5----|
E----------------------------------------------------------------|
B----------------------------------------------------------------|

G--9-10-12-12-12-12-12-12-12-12-17--9/10-9----7-9-9-9-9-9-9-9-9-14--7/9-7--|
D------------------------------------------10------------------------------|
A--------------------------------------------------------------------------|
E--------------------------------------------------------------------------|
B--------------------------------------------------------------------------|

G----------------------10-9-7----15-14-12-10---6-7-9-7-6-6-9-7/16-14-13--|
D--7-7-9-10-9-7-7-10-8--------10-----------------------------------------|
A------------------------------------------------------------------------|
E------------------------------------------------------------------------|
B------------------------------------------------------------------------|

G--14h17p14----------------------17--------9-10-12-12-12-12-12-12-12-12-17--9/10-9--|
D-----------14h17p14----------------17----------------------------------------------|
A--------------------15h17p15-15-------15-------------------------------------------|
E-----------------------------------------------------------------------------------|
B-----------------------------------------------------------------------------------|

G-----7-9-9----7-9-9----7-7-8-9-10-11-12/14--7/9-7-----------------------10-9-7--|
D--10-------10-------10------------------------------7-7-9-10-9-7-7-10-8---------|
A--------------------------------------------------------------------------------|
E--------------------------------------------------------------------------------|
B--------------------------------------------------------------------------------|
                    {--------------------SLAP--------------------}
G-----15-14-12-10----10-8-10------10-8-10-8----3h5-3h5-3h5-3h5-5-|
D--10------------------------10p8-----------10-------------------|
A----------------------------------------------------------------|
E----------------------------------------------------------------|
B----------------------------------------------------------------|

G-------------------------------------------------------------------------|
D-------------------------------------------------------------------------|
A--3-3-3-3-5-3-------------------------------0-1-3-5-3--------------------|
E--------------5p3p0-3-5-3-------------0-1-3-----------5p3p0-3-5-3-----1--|
B--------------------------5-3-1---1-3-----------------------------5-3----|

G--5-5-5-5-5h7p5----------------------------------2h3-5-5h7p5------|
D----------------7p5p0-5-5h7p5--------------2h3h5-------------7p5--|
A------------------------------7p5-3---\3h5------------------------|
E------------------------------------------------------------------|
B------------------------------------------------------------------|

G------0-0-----0-0-----0-0-----0-0/-17-17-17-17-17h19p17-------------------------|
D--3h4-----3h4-----3h4-----3h4---------------------------19p17-17-17h19p17-------|
A--------------------------------------------------------------------------19p17-|
E--------------------------------------------------------------------------------|
B--------------------------------------------------------------------------------|

G------17--------------------2h3-5-7-5-------------------8-10-8--------------------|
D----------------------2h3h5-----------7p5p0-5-5h7-5------------10-8-8-8h10-8------|
A--15-----15-15----3h5-------------------------------7-5----------------------10-8-|
E----------------------------------------------------------------------------------|
B----------------------------------------------------------------------------------|

G-----17----17----19----19----17----14----12---10----12----12----14----14--|
D--------------------------------------------------------------------------|
A--15----15----17----17----15----12----10----8----10----10----12----12-----|
E--------------------------------------------------------------------------|
B--------------------------------------------------------------------------|

G-----12---10---7---5---10---10---8---8---7---7---6---6---5---6---7---8------|
D----------------------------------------------------------------------------|
A--10----8----5---3---8----8----6---6---5---5---4---4-----3---4---5---6---8--|
E----------------------------------------------------------------------------|
B----------------------------------------------------------------------------|

G-----------13-14--------------------------------------------|
D-----13-15-------15----13-14--------------------------------|
A--15----------------15-------15----11-11h12-----------------|
E--------------------------------13----------13\-------1/13--|
B------------------------------------------------------------|





Comments


Popular Hamm Stu tabs & chords
Kings Of Sleep 1 Bass Tabs
Linus And Lucy Bass Tabs
Linus And Lucy 1 Bass Tabs
Moonlight Sonata Bass Tabs
Quahogs Anyone Bass Tabs
Quahogs Anyone Part 2 Bass Tabs
Terminal Beach Bass Tabs
The Tenacity Of Genes And Dreams Bass Tabs
Kings Of Sleep Tabs
Sleigh Ride Tabs


Song lyrics



↑ Back to top | Tablatures and chords are parodies/interpretations of the original songs. You may use it for private study, scholarship, research or language learning purposes only
© 2014 AZChords.com Contact us | Privacy policy | DMCA | Add/correct tabs | Request tabs | Top 50 tabs