>
 >
Say It Isn't So

Say It Isn't So Bass Tabs

Hall And Oates - Say It Isn't So chords, tabs, tablatures, lyrics

Guitar lessons | Add/correct | Request | Top 50 tabs Artists:  A B C D E F G H I J K L M N O P Q R S T U V W X Y Z 0-9

Say It Isn't So Bass Tabs – Hall And Oates

CD, Sheet music, Poster

Do you like Say It Isn't So? Share with your friends now
Bass TabsChords
Say It Isn't So (Bass Tabs) - Hall & Oates
Words & Music by Daryl Hall

Amaj7                               G6
----------------  ----------------  ----------------  ----------------|
----------------  ----------------  ----------------  ----------------|
0-0-0---0---2-0-  0-0-0---0---0---  ------------0---  --------------0-|
------0---0-----  ------0---0---3-  3-3-3-0-3-0---3-  3-3-3-0-3-0-3---|

Amaj7                               G6
----------------  ----------------  ----------------  ----------------|
----------------  ----------------  ----------------  ----------------|
0-0-0---0---2-0-  0-0-0---0---0---  ------------0---  --------------0-|
------0---0-----  ------0---0---3-  3-3-3-0-3-0---3-  3-3-3-0-3-0-3---|

Amaj7                               G6
----------------  ----------------  ----------------  ----------------|
----------------  ----------------  ----------------  ----------------|
0-0-0---0---2-0-  0-0-0---0---2-0-  ------------0---  ------------0---|
------0---0-----  ------0---0-----  3-3-3-0-3-0---3-  3-3-3-0-3-0---3-|

Amaj7                               G6
----------------  ----------------  ----------------  ----------------|
----------------  ----------------  ----------------  ----------------|
0-0-0---0---2-0-  0-0-0---0---2-0-  ------------0---  --------------0-|
------0---0-----  ------0---0-----  3-3-3-0-3-0---3-  3-3-3-0-3-0-3---|

      Say it isn't so painful...
Amaj9                               Cmaj7
----------------  ----------------  ----------------  ----------------|
----------------  ----------------  ------------0---  ----------0-----|
0-0-0---0---2-0-  0-0-0---0---0-2-  3-3-3---3-----3-  3-3-3---3---2-3-|
------0---0-----  ------0---0-----  ------3---3-----  ------3---------|

Last time I asked you I...
Amaj7                               Cmaj7
----------------  ----------------  ----------------  ----------------|
----------------  ----------------  ------------0---  ----------------|
0-0-0---0---2---  0-0-0---0---0-2-  3-3-3---3-----3-  3-3-3---3---2-3-|
------0---0---0-  ------0---0-----  ------3---3-----  ------3---3-----|

  Now wicked things can...
Dmaj7                               Bm
----------------  ----------------  ----------------  ----------------|
0-0-0---0---2-0-  0-0-0---0-0-----  ----------------  ----------------|
------0---0-----  ------0-----4-4-  2-2-2-2-2---4-2-  2-2-2---2-------|
----------------  ----------------  ----------2-----  ------2---2-2-1-|

  But when you play in a ...
Em7                                 A7sus             A9
----------------  ----------------  ----------------  ----------------|
--2-2---2---4-2-  2-2-2---2-------  ----------------  ----------------|
------2---2-----  ------2---2-2-0-  0-0-0---0---2---  0-0-0---0---0-0-|
0---------------  ----------------  ------0---0---0-  ------0---0-----|

(Say it) Tell me what you want...
(2nd verse) We like to be the...
Amaj7                               Cmaj7
----------------  ----------------  ----------------  ----------------|
----------------  ----------------  ------------0---  ----------0-----|
0-0-0---0---2-0-  0-0-0---0---0-2-  3-3-3---3-----3-  3-3-3---3---2-3-|
------0---0-----  ------0---0-----  ------3---3-----  ------3---------|

(Say it) Who propped you up...
(2nd v. cont.) You like to move...
Amaj7                               Cmaj7
----------------  ----------------  ----------------  ----------------|
----------------  ----------------  ----------------  ----------------|
0-0-0---0---2-0-  0-0-0---0---0-2-  3-3-3---3---0-3-  3-3-3---3---2-3-|
------0---0-----  ------0---0-----  ------3---3-----  ------3---3-----|

I know your first reaction...
(2nd v. cont.) Don't need someone to lean on...
Dmaj7                                Bm
----------------  ----------------  ----------------  ----------------|
0-0-0---0---2-0-  0-0-0---0-0-----  ----------------  ----------------|
------0---0-----  ------0-----4-4-  2-2-2---2---4---  2-2-2---2-------|
----------------  ----------------  ------2---2---2-  ------2---2-2-1-|

But if there's a doubt...
(2nd v.) But if I'm faced...
Em7                                 A7sus             A9
----------------  ----------------  ----------------  ----------------|
--2-2---2---4-2-  2-2-2---2-------  ----------------  ----------------|
------2---2-----  ------2---2-2-0-  0-0-0---0---0-0-  0-0-------------|
0---------------  ----------------  ------0---0-----  ----3-3-2-2-0-0-|

So..(it isn't so)
D                 Bm                Em7-5             A7
----------------  ----------------  ----------------  ----------------|
0-0-0---0---0---  ----------------  ----------------  ------------0---|
------0---0---0-  2-2-2---2---2---  --------2-2-2-2-  0-0-0-0-0-2---2-|
----------------  ------2---2---2-  0-0-0-0---------  ----------------|

So..(it isn't so)
D                 Bm                Em7-5             A/E
----------------  ----------------  ----------------  ----------------|
0-0-0---0---0---  ----------------  ----------------  ----------------|
------0---0---0-  2-2-2---2---2---  --------2-2-2-2-  0-0-0---0---0-0-|
----------------  ------2---2---2-  0-0-0-0---------  ------0---0-----|

(2nd Verses Chorus)
So..(it isn't so)
D                 Bm                Em7-5             A7
----------------  ----------------  ----------------  ----------------|
0-0-0---0---0---  ----------------  ----------------  ------------0---|
------0---0---0-  2-2-2---2---2---  --------2-2-2-2-  0-0-0-0-0-2---2-|
----------------  ------2---2---2-  0-0-0-0---------  ----------------|

So..(it isn't so)
D                 Bm                Em7-5             A/E
----------------  ----------------  ----------------  ----------------|
0-0-0---0---0---  ----------------  ----------------  ----------------|
------0---0---0-  2-2-2---2---2---  --------2-2-2-2-  0-0-0-0-0-0-2-0-|
----------------  ------2---2---2-  0-0-0-0---------  ----------------|

(Drums/Handclaps)
----------------|
----------------|
----------------|
----------------|

(Say it)
Amaj7                               G6
----------------  ----------------  ----------------  ----------------|
----------------  ----------------  ----------------  ----------------|
0-0-0---0---2---  0-0-0---0---2---  ------------0---  --------------0-|
------0---0---0-  ------0---0---0-  3-3-3-0-3-0---3-  3-3-3-0-3-0-3---|

(Say it)
Amaj7                               Cmaj7
----------------  ----------------  ----------------  ----------------|
----------------  ----------------  ------------0---  ----------0-----|
0-0-0---0---2-0-  0-0-0---0---0-2-  3-3-3---3-----3-  3-3-3---3---2-3-|
------0---0-----  ------0---0-----  ------3---3-----  ------3---------|

(Say it)
Amaj7                               G6
----------------  ----------------  ----------------  ----------------|
----------------  ----------------  ----------------  ----------------|
0-0-0---0---2---  0-0-0---0---0---  ------------0---  ----------------|
------0---0---0-  ------0---0---3-  3-3-3-0-3-0---3-  3-3-3-3-3-0-2-3-|

Why you gonna go...
Bm7/A
----------------  ----------------  ----------------  ----------------|
----------------  ----------------  ----------------  ----------------|
0-0-0-0-0-0-0-0-  0-0-0-0-0-0-0---  0-0-0-0-0-0-0-0-  0-0-------------|
----------------  --------------0-  ----------------  ----3-3---------|

So..(it isn't so)
(repeat & fade)
D                 Bm                Em7-5             A7
----------------  ----------------  ----------------  ----------------|
0-0-0---0---0---  ----------------  ----------------  ----------------|
------0---0---0-  2-2-2---2---2---  --------2-2-2-2-  0-0-------------|
----------------  ------2---2---2-  0-0-0-0---------  ----3-3-2-2-0-0-|

So..(it isn't so)
D                 Bm                Em7-5             A7
----------------  ----------------  ----------------  ----------------|
0-0-0---0---0---  ----------------  ----------------  ------------0---|
------0---0---0-  2-2-2---2---2---  --------2-2-2-2-  0-0-0-0-0-2---2-|
----------------  ------2---2---2-  0-0-0-0---------  ----------------|





Comments


Popular Hall And Oates tabs & chords
Method Of Modern Love Bass Tabs
I Cant Go For Thatno Can Do Chords
Maneater Chords
Some Things Are Better Left Unsaid Chords
You Make My Dreams 1 Chords
You Make My Dreams 3 Chords
Im Just A Kid Dont Make Me Feel Like A Man Tabs
Sara SmileIntro Tabs
Fall In Philadelphia Ukulele
Shes Gone Ukulele


Song lyrics



↑ Back to top | Tablatures and chords are parodies/interpretations of the original songs. You may use it for private study, scholarship, research or language learning purposes only
© 2014 AZChords.com Contact us | Privacy policy | DMCA | Add/correct tabs | Request tabs | Top 50 tabs