>
 >
I Told You So

I Told You So Guitar Tabs

Halifax - I Told You So chords, tabs, tablatures, lyrics

Guitar lessons | Add/correct | Request | Top 50 tabs Artists:  A B C D E F G H I J K L M N O P Q R S T U V W X Y Z 0-9

I Told You So Guitar Tabs – Halifax

CD, Sheet music, Poster

Do you like I Told You So? Share with your friends now
Tabs
Intro
Fairly simple.. the rhythm is dead obvious.


E||----------------------------------------------------|
B||----------------------------------------------------|
G||----------------------------------------------------|
D||-----------8----------------------------------------|
A||--5--5-----6-----8-----10--10--10-----5-----8-------|
D||--5--5-----------8-----10--10--10-----5-----8-------|

E||----------------------------------------------------|
B||----------------------------------------------------|
G||----------------------------------------------------|
D||-----------8----------------------------------------|
A||--5--5-----6-----8-----10--10\----------5--5--------|
D||--5--5-----------8-----10--10\----------5--5--------|

E||----------------------------------------------------|
B||----------------------------------------------------|
G||----------------------------------------------------|
D||-----------8----------------------------------------|
A||--5--5-----6-----8-----10--10--10-----5-----8-------|
D||--5--5-----------8-----10--10--10-----5-----8-------|

E||----------------------------------------------------|
B||----------------------------------------------------|
G||----------------------------------------------------|
D||-----------8-------------------0h3p0-5h6p5-3--------|
A||--5--5-----6-----8-----10--10-----------------------|
D||--5--5-----------8-----10--10-----------------------|

E||----------------------------------------------------|
B||----------------------------------------------------|
G||----------------------------------------------------|
D||-----------8----------------------------------------|
A||--5--5-----6-----8-----10--10--10-----5-----8-------|
D||--5--5-----------8-----10--10--10-----5-----8-------|

E||----------------------------------------------------|
B||----------------------------------------------------|
G||----------------------------------------------------|
D||-----------8-------------------0h3p0-5h6p5-5--------|
A||--5--5-----6-----8-----10--10-----------------------|
D||--5--5-----------8-----10--10-----------------------|


___

Verse
Not sure about the D#. Let me know what you think.


E||--------------------------|-------------------------|
B||--------------------------|-------------------------|
G||--------------------------|-------------------------|
D||--------------------------|-------------------------|
A||--5--5--------------5-----|--5--5--------5--5-------|
D||--5--5--------------5-----|--5--5--------5--5-------|

E||-------------------------|--------------------------|
B||-------------------------|--------------------------|
G||-------------------------|--------------------------|
D||--8--8--------------8----|--------------------------|
A||--6--6-----------x--6----|-------------5--6b--------|
D||-------------------------|--------------------------|


E||--------------------------|-------------------------|
B||--------------------------|-------------------------|
G||--------------------------|-------------------------|
D||--------------------------|-------------------------|
A||--5--5--------------5-----|--5--5--------5--5-------|
D||--5--5--------------5-----|--5--5--------5--5-------|

E||-------------------------|--------------------------|
B||-------------------------|--------------------------|
G||-------------------------|--------------------------|
D||--8--8--------------8----|---------8-6-5------------|
A||--6--6-----------x--6----|--5-6-5----------6-5-3----|
D||-------------------------|--------------------------|


___


Prechorus is just some octaves. I'm PRETTY sure they are just D# and F octaves.


E||--------|
B||--------|
G||--8--10-|
D||--------|
A||--6--8--|
D||--------|

___

Chorus

Here is the chord progression.. you can get the rhythm I'm sure.


E||-------------------------------------|
B||-------------------------------------|
G||-------------------------------------|
D||-----------8-------------------------|
A||--5--5-----6-----8-----10--10--10----|
D||--5--5-----------8-----10--10--10----|

___

Bridge

Not sure about everything here. Comment some corrections.


Guitar One plays this...
E||------------------------|
B||--------6---------------|
G||----------7---7---------|
D||-----5------5-----------|
A||--5---------------------|
D||------------------------|

E||------------------------|
B||------------------------|
G||------------5h7-5-------|
D||------------------------|
A||-----5------------------|
D||--5---------------------|


Guitar Two comes in on the second repeat with a harmony (not sure on this either):
E||--------------------------|--------------------------||
B||--------------------------|--------------------------||
G||--------------------------|--------------------17----||
D||--------------17----------|--------------17----------||
A||--------17----------17----|--------17----------------||
D||--17----------------------|--17----------------------||


All I could pick out on the piano are (guitar-transcribed):
E||--22-|--20-||
B||-----|-----||
G||-----|-----||
D||-----|-----||
A||-----|-----||
D||-----|-----||

____

Bridge 2/Outro


Guitar One is playing octaves.
E||----------------------------------|----------------------------------|
B||--11--11--11--11--11--11--11--11--|--11--11--11--11--11--13--13--13--|
G||----------------------------------|----------------------------------|
D||---8---8---8---8---8---8---8---8--|---8---8---8---8---8--10--10--10--|
A||----------------------------------|----------------------------------|
D||----------------------------------|----------------------------------|

E||----------------------------------|----------------------------------|
B||--10--10--10--10--10--10--10--10--|--10--10--10--10--10--11--11--11--|
G||----------------------------------|----------------------------------|
D||---7---7---7---7---7---7---7---7--|---7---7---7---7---7---8---8---8--|
A||----------------------------------|----------------------------------|
D||----------------------------------|----------------------------------|

E||--------------------------|--------------------------|
B||--8--8--8--8--8--8--8--8--|--6--6--6--6--6--6--6--6--|
G||--------------------------|--------------------------|
D||--5--5--5--5--5--5--5--5--|--3--3--3--3--3--3--3--3--|
A||--------------------------|--------------------------|
D||--------------------------|--------------------------|

E||--------------------------|--------------------------||
B||--4--4--4--4--4--4--4--4--|--3--3--3--3--3--3--3--3--||
G||--------------------------|--------------------------||
D||--1--1--1--1--1--1--1--1--|--0--0--0--0--0--0--0--0--||
A||--------------------------|--------------------------||
D||--------------------------|--------------------------||

Guitar Two plays rhythm with the following chords:

E||-----|-----|-----|-----|
B||-----|-----|-----|-----|
G||-----|-----|-----|-----|
D||--8--|--7--|--5--|--3--|
A||--8--|--7--|--5--|--3--|
D||--8--|--7--|--5--|--3--|



End the song on A#.





Comments


Popular Halifax tabs & chords
Finished In A Day Chords
Better Than Sex Intro Tabs
Broken Glass Syndrome 1 Tabs
Broken Glass Syndrome Intro Tabs
I Hate Your Eyes 2 Tabs
Our Revelution Tabs
Our Revolution 1 Tabs
Such A Terrible Trend Tabs
Sydney Ukulele
Sydney 2 Ukulele


Song lyrics



↑ Back to top | Tablatures and chords are parodies/interpretations of the original songs. You may use it for private study, scholarship, research or language learning purposes only
© 2014 AZChords.com Contact us | Privacy policy | DMCA | Add/correct tabs | Request tabs | Top 50 tabs