>
 >
I Hate Your Eyes

I Hate Your Eyes Guitar Tabs

Halifax - I Hate Your Eyes chords, tabs, tablatures, lyrics

Guitar lessons | Add/correct | Request | Top 50 tabs Artists:  A B C D E F G H I J K L M N O P Q R S T U V W X Y Z 0-9

I Hate Your Eyes Guitar Tabs – Halifax

CD, Sheet music, Poster

Do you like I Hate Your Eyes? Share with your friends now
TabsTabs v2
-------------------------------------------------------------------------------
                            Halifax-I Hate Yor Eyes
-------------------------------------------------------------------------------

      This is a great song by a great new band, theres basically no tabs of any halifax
      around so hopefully later on i'll do some other songs aswell.

Tuning:  Eb Ab Db Gb Bb eb


   INTRO
eb|--o-o-o-o-o-o-o-o-o-o-o--o-o-o-o-o--o--o--o--o-o-o-o--o-o-o-o-o------------|
Bb|-5-5-5-7-4-4-4-4-9-9-9-10-7-7-7-9-10-10-10-12-9-9-9-12-7-7-7-7-------------|Repeat x2
Gb|---------------------------------------------------------------------------|
Db|---------------------------------------------------------------------------|
Ab|---------------------------------------------------------------------------|
Eb|---------------------------------------------------------------------------|

   VERSE    C             Eb           Ab            Bb             
eb|-------|-------------------------------------------------------------------|
Bb|-----#-|-------------------------------------------------------------------|
Gb|-------|-------------------------------------------------------------------| Verse x2
Db|-5-5-5/|-6-6-6-6--------------------2-2-2-2-------4-4-4-4---------5-5-5/---|
Ab|-3-3-3/|-4-4-4-4-etc.--2-2-2-2------0-0-0-0-etc.--2-2-2-2-etc.----3-3-3/---|
Eb|-------|---------------0-0-0-0-etc.----------------------------------------|
            (16th note mutes)

       # slide into the first beat of the verse 
        

   Chorus
     C       Absus2    Bb  
eb|----------0-0-0-0----------------------------------------------------------|
Bb|----------0-0-0-0----------------------------------------------------------|
Gb|--6--6----2-2-2-2---4-4-4-4---4-4-4-4--------------------------------------|
Db|--6--6----2-2-2-2---4-4-4-4---4-4-4-4--------repeat x 4--------------------|
Ab|--4--4----0-0-0-0---2-2-2-2---2-2-2-2--------------------------------------|
Eb|---------------------------------------------------------------------------|

  2nd verse 
   same as the first but let the first C ring on, then come in with the mutes on the Eb 

  2nd Chorus
    same as before 
  
   BreakDown= Chords used in the chorus x4(?)

   Solo= Chords used in the Chorus x4

    i cant be botherd to tab out the solo,(sorry) its just playing around in C minor/ Eb major  
   

   Interlude "Its up to you for this" 
eb|---------------------------------------------------------------------------|
Bb|---------------------------------------------------------------------------|
Gb|-6------------2------------------------------------------------------------|
Db|-6-let ring---2-------------repeat again-----------------------------------|
Ab|-4------------0-let ring---------------------------------------------------|
Eb|---------------------------------------------------------------------------|

eb|---------------------------------------------------------------------------|
Bb|---------------------------------------------------------------------------|
Gb|-6-6-------2-2-----------------2--------2-2--------------------------------|
Db|-6-6-------2-2-------4-4-------2--------2-2--------------------------------|
Ab|-4-4-etc,--0-0-etc.--4-4-------0--break-0-0--------------------------------|
Eb|---------------------2-2-etc-----------------------------------------------|
     16th mutes again


   "Come on angel lets talk this over"
eb|---------------------------------------------------------------------------|
Bb|---------------------------------------------------------------------------|
Gb|---------------------------------------------------------------------------|
Db|--6-6------9-9------2-2------2-2--(4)--------------------------------------|
Ab|--4-4------7-7------0-0------0-0--(2)--------------------------------------|
Eb|---------------------------------------------------------------------------|
        All mutes again

Last Chorus (same as before but theres a break somewhere in there.

 Thats basically it, Mail me if you really want the solo. THANX   

| /  slide up
| \  slide down
| h  hammer-on
| p  pull-off
| ~  vibrato
| +  harmonic
| x  Mute note
===============================================================================





Comments


Popular Halifax tabs & chords
Giant In The Ring Bass Tabs
Sydney 3 Chords
Broken Glass Syndrome Tabs
I Told You So Intro Tabs
Nightmare Tabs
Our Revolution 4 Tabs
Sydney Tabs
Ten Fingers Isn't Quite Enough Tabs
Finished In A Day Ukulele
Sydney 2 Ukulele


Song lyrics



↑ Back to top | Tablatures and chords are parodies/interpretations of the original songs. You may use it for private study, scholarship, research or language learning purposes only
© 2014 AZChords.com Contact us | Privacy policy | DMCA | Add/correct tabs | Request tabs | Top 50 tabs