>
 >
Saviour

Saviour Guitar Tabs

Halford - Saviour chords, tabs, tablatures, lyrics

Guitar lessons | Add/correct | Request | Top 50 tabs Artists:  A B C D E F G H I J K L M N O P Q R S T U V W X Y Z 0-9

Saviour Guitar Tabs – Halford

CD, Sheet music, Poster

Do you like Saviour? Share with your friends now
Tabs
Band:  Halford

Copyright (c)  



.  - palm mute           /  - slide up to
\  - slide down to       ~  - vibrato
h  - hammer on           b  - Bend
p  - pull off            Suffixes for bend
t  - tap                 f  - full bend    h - half bend
ph - pinched harmonic    q  - quarter bend t - tap bend
*  - see comment         ^  - Hold bend    r release bend
x  - Stuccatto           ~  - vibrato bend
,  - slight palm mute    () - ghost note, sustained note
"  - tremolo note        <> - Trill

Tuning - Standard (E,A,D,G,B,E)

This is a really short song and not too hard to play. I've just tabbed it exactly how it's played so there are going to be repeat riffs and stuff.

|-------------------------------------------------------------------|
|-------------------------------------------------------------------|
|-------------------------------------------------------------------|
|-----4-4--4/5---4------2-4-5-4---4--4/5---4------2-4-5-4-----------|
|-----2-2--2/3-0-2---4--0-2-3-2-0-2--2/3-0-2---4--0-2-3-2-----------|
|------------------0-2-----------------------0-2--------------------|
		   .   .   		  .	     .   .

Drums and Solo Start

|-------------------------------------------------------------------|
|-------------------------------------------------------------------|
|-------------------------------------------------------------------|
|-------4--4/5---4------2-4-5-4---4--4/5---4------2-4-5-4-----------|
|-----0-2--2/3-0-2---4--0-2-3-2-0-2--2/3-0-2---4--0-2-3-2-----------|
|------------------0-2-----------------------0-2--------------------|
	.	   .   .            .	     .   .		   

|-------------------------------------------------------------------|
|-------------------------------------------------------------------|
|-------------------------------------------------------------------|
|-------4--4/5---4------2-4-5-4---4--4/5---4------2-4-5-4-----------|
|-----0-2--2/3-0-2---4--0-2-3-2-0-2--2/3-0-2---4--0-2-3-2-----------|
|------------------0-2-----------------------0-2--------------------|
      .	   .   .		  .	     .   .

Singing Starts: "I'm set to..."

|-------------------------------------------------------------------|
|-------------------------------------------------------------------|
|-------------------------------------------------------------------|
|---------------------4--4/5---4------2-4-5-4-----------------------|
|----2222222222222222-2--2/3-0-2---4--0-2-3-2-----------------------|
|--------------------------------0-2--------------------------------|
     ................	     .   .

|-------------------------------------------------------------------|
|-------------------------------------------------------------------|
|-------------------------------------------------------------------|
|---------------------4--4/5---4------2-4-5-------------------------|
|----2222222222222222-2--2/3-0-2---4--0-2-3--4----------------------|
|--------------------------------0-2---------2----------------------|
     ................	     .   .

|-------------------------------------------------------------------|
|-------------------------------------------------------------------|
|-------------------------------------------------------------------|
|-------------------------------------------------------------------|
|---------------------4-4/5---4---5-7-5---4-------------------------|
|----2222222222222222-2-2/3-0-2-0-3-5-3-0-2-------------------------|
     ................	    .   .       .

|-------------------------------------------------------------------|
|-------------------------------------------------------------------|
|-------------------------------------------------------------------|
|--------------------------------------------2----------------------|
|---------------------4-4/5---4--------2-3-5------------------------|
|----2222222222222222-2-2/3-0-2--2-3-5------------------------------|
     ................       .    . . . . . . .

Chorus: "Here I am...."

|-------------------------------------------------------------------|
|-------------------------------------------------------------------|
|-------------------------------------------------------------------|
|----9--12-11--7----10-9--12-11---7---------------------------------|
|----7--10--9--5--5--8-7--10--9-0-5--3-2-0-2-0----------------------|
|-----------------3----------------------------3-2------------------|

|-------------------------------------------------------------------|
|-------------------------------------------------------------------|
|-------------------------------------------------------------------|
|----9--12-11--7----10-9--12-11---7---------------------------------|
|----7--10--9--5--5--8-7--10--9-0-5--3-2-0-2-0----------------------|
|-----------------3----------------------------3-2------------------|

Another Solo starts

|-------------------------------------------------------------------|
|-------------------------------------------------------------------|
|-------------------------------------------------------------------|
|-----4-4--4/5---4------2-4-5-4---4--4/5---4------2-4-5-4-----------|
|-----2-2--2/3-0-2---4--0-2-3-2-0-2--2/3-0-2---4--0-2-3-2-----------|
|------------------0-2-----------------------0-2--------------------|
		   .   .            .        .   .

|-------------------------------------------------------------------|
|-------------------------------------------------------------------|
|-------------------------------------------------------------------|
|-------4--4/5---4------2-4-5-4---4--4/5---4------2-4-5-4-----------|
|-----0-2--2/3-0-2---4--0-2-3-2-0-2--2/3-0-2---4--0-2-3-2-----------|
|------------------0-2-----------------------0-2--------------------|
      .        .   .   		  .	     .   .  

Singing Again: "Iv'e always...."

|-------------------------------------------------------------------|
|-------------------------------------------------------------------|
|-------------------------------------------------------------------|
|---------------------4--4/5---4------2-4-5-4-----------------------|
|----2222222222222222-2--2/3-0-2---4--0-2-3-2-----------------------|
|--------------------------------0-2--------------------------------|
     ................        .   .  

|-------------------------------------------------------------------|
|-------------------------------------------------------------------|
|-------------------------------------------------------------------|
|---------------------4--4/5---4------2-4-5-------------------------|
|----2222222222222222-2--2/3-0-2---4--0-2-3--4----------------------|
|--------------------------------0-2---------2----------------------|
     ................        .   .  

|-------------------------------------------------------------------|
|-------------------------------------------------------------------|
|-------------------------------------------------------------------|
|-------------------------------------------------------------------|
|---------------------4-4/5---4---5-7-5---4-------------------------|
|----2222222222222222-2-2/3-0-2-0-3-5-3-0-2-------------------------|
     ................       .   .       .

|-------------------------------------------------------------------|
|-------------------------------------------------------------------|
|-------------------------------------------------------------------|
|--------------------------------------------2----------------------|
|---------------------4-4/5---4--------2-3-5------------------------|
|----2222222222222222-2-2/3-0-2--2-3-5------------------------------|
     ................       .    . . . . . . .

Chorus

|-------------------------------------------------------------------|
|-------------------------------------------------------------------|
|-------------------------------------------------------------------|
|----9--12-11--7----10-9--12-11---7---------------------------------|
|----7--10--9--5--5--8-7--10--9-0-5--3-2-0-2-0----------------------|
|-----------------3----------------------------3-2------------------|

|-------------------------------------------------------------------|
|-------------------------------------------------------------------|
|-------------------------------------------------------------------|
|----9--12-11--7----10-9--12-11---7---------------------------------|
|----7--10--9--5--5--8-7--10--9-0-5--3-2-0-2-0----------------------|
|-----------------3----------------------------3-2------------------|

Yet another solo: Below is the tab for the first part of the solo which is basically a run, I didn't bother working out the rest! Some of the solo is muted.

|-------------------------------------------------------------------|
|-------------------------------------------------------------------|
|------------------------------2---------4-3------------------------|
|------------------2---5-4-2-4---5-4-2------------------------------|
|----2---2-3-2-3-5---5----------------------------------------------|
|-------------------------------------------------------------------|
	   . . . . . . . 		   . . . 

Backing Riff

|-------------------------------------------------------------------|
|-------------------------------------------------------------------|
|-------------------------------------------------------------------|
|-----4-4--4/5---4------2-4-5-4---4--4/5---4------2-4-5-4-----------|
|-----2-2--2/3-0-2---4--0-2-3-2-0-2--2/3-0-2---4--0-2-3-2-----------|
|------------------0-2-----------------------0-2--------------------|
		   .   .            .        .   . 

|-------------------------------------------------------------------|
|-------------------------------------------------------------------|
|-------------------------------------------------------------------|
|-------4--4/5---4------2-4-5-4---4--4/5---4------2-4-5-4-----------|
|-----0-2--2/3-0-2---4--0-2-3-2-0-2--2/3-0-2---4--0-2-3-2-----------|
|------------------0-2-----------------------0-2--------------------|
	.        .   .            .        .   .

|-------------------------------------------------------------------|
|-------------------------------------------------------------------|
|-------------------------------------------------------------------|
|---------------------4--4/5---4------2-4-5-4-----------------------|
|----2222222222222222-2--2/3-0-2---4--0-2-3-2-----------------------|
|--------------------------------0-2--------------------------------|
     ................        .   .

|-------------------------------------------------------------------|
|-------------------------------------------------------------------|
|-------------------------------------------------------------------|
|---------------------4--4/5---4------2-4-5-------------------------|
|----2222222222222222-2--2/3-0-2---4--0-2-3--4----------------------|
|--------------------------------0-2---------2----------------------|
     ................        .   .

|-------------------------------------------------------------------|
|-------------------------------------------------------------------|
|-------------------------------------------------------------------|
|-------------------------------------------------------------------|
|---------------------4-4/5---4---5-7-5---4-------------------------|
|----2222222222222222-2-2/3-0-2-0-3-5-3-0-2-------------------------|
     ................       .   .       .

|-------------------------------------------------------------------|
|-------------------------------------------------------------------|
|-------------------------------------------------------------------|
|--------------------------------------------2----------------------|
|---------------------4-4/5---4--------2-3-5------------------------|
|----2222222222222222-2-2/3-0-2--2-3-5------------------------------|
     ................       .    . . . . . . .

Chorus

|-------------------------------------------------------------------|
|-------------------------------------------------------------------|
|-------------------------------------------------------------------|
|----9--12-11--7----10-9--12-11---7---------------------------------|
|----7--10--9--5--5--8-7--10--9-0-5--3-2-0-2-0----------------------|
|-----------------3----------------------------3-2------------------|

|-------------------------------------------------------------------|
|-------------------------------------------------------------------|
|-------------------------------------------------------------------|
|----9--12-11--7----10-9--12-11---7---------------------------------|
|----7--10--9--5--5--8-7--10--9-0-5--3-2-0-2-0----------------------|
|-----------------3----------------------------3-2------------------|

|-------------------------------------------------------------------|
|-------------------------------------------------------------------|
|-------------------------------------------------------------------|
|----9--12-11--7----10-9--12-11---7---------------------------------|
|----7--10--9--5--5--8-7--10--9-0-5--3-2-0-2-0----------------------|
|-----------------3----------------------------3-2------------------|

|-------------------------------------------------------------------|
|-------------------------------------------------------------------|
|-------------------------------------------------------------------|
|----9--12-11--7----10-9--12-11---7---------------------------------|
|----7--10--9--5--5--8-7--10--9-0-5--3-2-0-2-0-------2--------------|
|-----------------3----------------------------3-2---0--------------|





Comments


Popular Halford tabs & chords
Light Of The World Chords
Nailed To The Gun Chords
Cyberworld Tabs
Made In Hell Tabs
Prisoner Of Your Eyes Tabs
Resurection Tabs
Resurrection 1 Tabs
Wrath Of God 1 Tabs
Light Of The World Ukulele
Nailed To The Gun Ukulele


Song lyrics



↑ Back to top | Tablatures and chords are parodies/interpretations of the original songs. You may use it for private study, scholarship, research or language learning purposes only
© 2014 AZChords.com Contact us | Privacy policy | DMCA | Add/correct tabs | Request tabs | Top 50 tabs