» » »

Resurection Tabs (ver.1)

Artists:  A B C D E F G H I J K L M N O P Q R S T U V W X Y Z # 

Resurection Tabs (ver.1)

Halford
Rating:
0/5 (0 votes)

Hard to play? Try these video lessons and learn fast.
                                         HALFORD - RESURECTION
                           From "Resurection"            



For the exact timing listen to the song.

.  - palm mute                          /  - slide up
\  - slide down                         ~  - vibrato
"  - tremolo picking                    () - ghost note
p  - pull off                           h  - hammer-on 
tr - trill                              fb - full bend (1step)
< > - harmonic

Tune down 1 step (DGCFAD)

Riff 1 (intro) w/p.m. on low D
|-----------------------------------------------------------------|
|-----------------------------------------------------------------|
|-----------------------------------------------------------------|
|-7/9---7---------------------------------------------------------|
|-5/7---5-------------------------7/8---7-----5-----------5-------|
|-----0---0-0-0-0-0-0-0-0-0-0-0-0-5/6-0-5-0-0-3-----------3-------|

Riff 2 (verse) w/p.m. on low D
|-----------------------------------------------------------------
|-----------------------------------------------------------------
|-----------------------------------------------------------------
|---------------------------------------------------------------7-
|---------------------------------5-8---5-7---5-8---5-7---------5-
|-0-0-0-0-0-0-0-0-0-0-0-0-0-0-0-0-----0-----0-----0-----0-0-0-0---

|-----------------------------------------------------------------
|-----------------------------------------------------------------
|-----------------------------------------------------------------
|-9-------------------------------------------------------------7-x2
|-7-------------------------------5-8---5-7---5-8---5-7---------5-
|---0-0-0-0-0-0-0-0-0-0-0-0-0-0-0-----0-----0-----0-----0-0-0-0---

|-----------------------------------------------------------------|
|-----------------------------------------------------------------|
|-----------------------------------------------------------------|
|-9---------------------------------------------------------------|
|-7-------------------------------5-8---5-7---5-8---5-7-----------|
|---0-0-0-0-0-0-0-0-0-0-0-0-0-0-0-----0-----0-----0-----0-0-0-0-0-|

Riff 3 (chorus)
|-----------------------------------------------------------------
|-----------------------------------------------------------------
|-----------------------------------------------------------------
|---------------------------------5---------------4---------------
|-2---------------4-------5-------3---------------2---------------
|-0---------------2-------3---------------------------------------

|-----------------------------------------------------------------
|-----------------------------------------------------------------
|-----------------------------------------------------------------
|---------------------------------5---------------7-----5-----4---
|-2---------------4-------5-------3---------------5-----3-----2---
|-0---------------2-------3---------------------------------------

|-----------------------------------------------------------------
|-----------------------------------------------------------------
|-----------------------------------------------------------------
|---------------------------------5---------------4---------------
|-2---------------4-------5-------3---------------2---------------
|-0---------------2-------3---------------------------------------

|-----------------------------------------------------------------
|-----------------------------------------------------------------
|-----------------------------------------------------------------
|---------------------------------5---------------7---------------
|-2---------------4-------5-------3---------------5---------------
|-0---------------2-------3---------------------------------------

Riff 4-a (1st solo)
|-----------------------------------------------------------------|
|-----------------------------------------------------------------|
|-----------------------------------------------------------------|
|-----------------------------------------------------------------|
|-7-----------5---7-----------5---7-----8-----10--8---------------|
|-5-----------3---5-----------3---5-----6-----8---6---------------|

Riff 4-b (2nd solo)
|-----------------------------------------------------------------|
|-----------------------------------------------------------------|
|-----------------------------------------------------------------|
|-----------------------------------------------------------------|
|-9-----------7---9-----------7---9-----10----12--10--------------|
|-7-----------5---7-----------5---7-----8-----10--8---------------|

Ending (3rd chorus)
|-----------------------------------------------------------------
|-----------------------------------------------------------------
|-----------------------------------------------------------------
|---------------------------------5---------------4---------------
|-2---------------4-------5-------3---------------2---------------
|-0---------------2-------3---------------------------------------

|-----------------------------------------------------------------
|-----------------------------------------------------------------
|-----------------------------------------------------------------
|---------------------------------5---------------7-----5-----4---
|-2---------------4-------5-------3---------------5-----3-----2---
|-0---------------2-------3---------------------------------------

|-----------------------------------------------------------------
|-----------------------------------------------------------------
|-----------------------------------------------------------------
|---------------------------------5---------------4---------------
|-2---------------4-------5-------3---------------2---------------
|-0---------------2-------3---------------------------------------

|-----------------------------------------------------------------
|-----------------------------------------------------------------
|-----------------------------------------------------------------
|---------------------------------5---------------7-----5-----4---
|-2---------------4-------5-------3---------------5-----3-----2---
|-0---------------2-------3---------------------------------------

|-------------------------------------|
|-------------------------------------|
|-------------------------------------|
|-5-----4-----2---7-----5-----4---9---|
|-3-----2-----0---5-----3-----2---7---|
|-------------------------------------|

Song structure:
	Riff 1 (gtr.1 only)
	Riff 1 (both gtrs.)
	Riff 2
	Riff 3
	Riff 2
	Riff 3
	Riff 4-a x2
	Riff 4-b x2
	Riff 1 (gtr.1 only)
	Riff 1 x3 (both gtrs.)
	Riff 2
	Riff 3
	Ending
            
Hard to play? Try these video lessons and learn fast. | Correct




comments powered by Disqus
↑ Back to top | Tablatures and chords are parodies/interpretations of the original songs. You may use it for private study, scholarship, research or language learning purposes only