>
 >
Made In Hell

Made In Hell Guitar Tabs

Halford - Made In Hell chords, tabs, tablatures, lyrics

Guitar lessons | Add/correct | Request | Top 50 tabs Artists:  A B C D E F G H I J K L M N O P Q R S T U V W X Y Z 0-9

Made In Hell Guitar Tabs – Halford

CD, Sheet music, Poster

Do you like Made In Hell? Share with your friends now
Tabs
made in hell


Halford






e:-------------------------------------------|
B:-------------------------------------------|
G:-------------------------------------------|
D:-7----10-----5-----10--9--7---5-----10--3--|
A:-5----8------3-----8---7--5---3-----8---1--|
D:-------------------------------------------|

e:---------------------------------------------------------|
B:---------6---8--6--------6-----------6--8-6--------6~~~~-|
G:-7~~~--9----------9~~~~----9-7~~~~-9--------9--7-9-------|
D:---------------------------------------------------------|
A:---------------------------------------------------------|
D:---------------------------------------------------------|

e:-----------------------------------------------------------|
B:-----------------------------------------------------------|
G:-----------------------------------------------------------|
D:-7-7-----7-----7-7-----7-----7-7-----7---------------------|
A:-5-5-----5-----5-5-----5-----5-5-----5------3-5-6--5--3h5--|
D:-----0-0---0-0-----0-0---0-0-----0-0---0-0--3-5-6--5--3h5--|

  solo 1                                                                Bar---------------- 
e:----------------------------------------------------16B----------------------------------|
B:--------15------------15-------------15----15----15--------------------------------------|
G:-17B-------17p15--17B----17p15--17B----17B----17B--------14h17p14h17p14h17p14h17p14h17p14|
D:-----------------------------------------------------------------------------------------|
A:-----------------------------------------------------------------------------------------|
D:-----------------------------------------------------------------------------------------|

   ---------------------
:-----------------------------------17B-|
:---------------------------------------|
:-14h17p14h17p14h17p14h17p14h17p14------|
:---------------------------------------|
:---------------------------------------|
:---------------------------------------|


verse
e:---------------------------------------------------------|
B:---------------------------------------------------------|
G:---------------------------------------------------------|
D:-7-7-----7-----7-7-----7-----7-7-----7-------------------|
A:-5-5-----5-----5-5-----5-----5-5-----5------3-5--3--3-5--|
D:-----0-0---0-0-----0-0---0-0-----0-0---0-0--3-5--3--3-5--|

e:-----------------------------------------------------------|
B:-----------------------------------------------------------|
G:-----------------------------------------------------------|
D:-7-7-----7-----7-7-----7-----7-7-----7---------------------|
A:-5-5-----5-----5-5-----5-----5-5-----5------3-5-6--5--3h5--|
D:-----0-0---0-0-----0-0---0-0-----0-0---0-0--3-5-6--5--3h5--|

e:------------------------------------------------------|
B:--------------------------------------------6-5-------|
G:--------------------------------------------5-5-------|
D:-7-7-----7-----7-7-----7-----7-7-----7----------------|
A:-5-5-----5-----5-5-----5-----5-5-----5-----------5--3-|
D:-----0-0---0-0-----0-0---0-0-----0-0---0-0-------5--3-|

e:-----------------------------------------------------------|
B:-----------------------------------------------------------|
G:-----------------------------------------------------------|
D:-7-7-----7-----7-7-----7-----7-7-----7---------------------|
A:-5-5-----5-----5-5-----5-----5-5-----5------3-5-6--5--3h5--|
D:-----0-0---0-0-----0-0---0-0-----0-0---0-0--3-5-6--5--3h5--|



e:------------------------------------------------------|
B:--------------------------------------------6-5--6-6--|
G:-7-7-----7-----7-7-----7-----7-7-----7------5-5--5-5--|
D:-5-5-----5-----5-5-----5-----5-5-----5----------------|
A:-----0-0---0-0-----0-0---0-0-----0-0---0-0------------|
D:------------------------------------------------------|

e:--------------------------------------------------------|
B:-----------------------6-5-------------------------6-6--|
G:-----------------------5-5-------------------------5-5--|
D:-7-7-----7-----7-7-----------7-7-----7-----7-7----------|
A:-5-5-----5-----5-5-----------5-5-----5-----5-5----------|
D:-----0-0---0-0-----0-0---0-0-----0-0---0-0-----0-0------|

e:-------------------------------------------------|
B:--------------------------------------------6-5--|
G:-7-7-----7-----7-7-----7-----7-7-----7------5-5--|
D:-5-5-----5-----5-5-----5-----5-5-----5-----------|
A:-----0-0---0-0-----0-0---0-0-----0-0---0-0-------|
D:-------------------------------------------------|


e:-----------------------------------|
B:-----------------------------------|
G:-----------------------------------|
D:-3-----5---------------------------|
A:-1-----3----5--3--0-----3--0-------|
D:---------------------6--------6-3--|


e:-------------------------------------------------------------------|
B:-------------------------------------------------------------------|
G:-------------------------------------------------------------------|
D:-------------------------------------------------------------------|
A:-0-----------------3-0-------3-5--3-----------------3-0------------|
D:-0--0-0-0-0-0-0-0--3-0--0-0--3-5--3--0-0-0-0-0-0-0--3-0--0-0-0-0-0-|

e:---------------------------------------------------------------------------|
B:---------------------------------------------------------------------------|
G:---------------------------------------------------------------------------|
D:---------------------------------------------------------------------------|
A:-0-----------------3-0-------3-5--3-----------------5--3--0-----3--0-------|
D:-0--0-0-0-0-0-0-0--3-0--0-0--3-5--3--0-0-0-0-0-0-0-----------6--------6--3-|


solo 2
e:-------------------------------------------------------------------|
B:------------------------------15-----------------------------------|
G:-17Bf--------17B~~~~~~~---17B-----17p15--14h17p14-----14-----------|
D:---------------------------------------------------17----17--15~~~-|
A:-------------------------------------------------------------------|
D:-------------------------------------------------------------------|

:-----------------------------------------------------------------------------|
:-----------------------------------------------------------------------------|
:-----14h17p14h17p14----14h17p14h17p14----14h17p14h17p14----14h17p14h17p14----|
:-17B----------------17----------------17----------------17----------------17-|
:-----------------------------------------------------------------------------|
:-----------------------------------------------------------------------------|

e:----------------------------------------17B----|
B:-----------------------------------------------|
G:-14h17p14----14h17p14----14h17p14----14--------|
D:----------17----------17----------17-----------|
A:-----------------------------------------------|
D:-----------------------------------------------|


verse
e:---------------------------------------------------------|
B:---------------------------------------------------------|
G:---------------------------------------------------------|
D:-7-7-----7-----7-7-----7-----7-7-----7-------------------|
A:-5-5-----5-----5-5-----5-----5-5-----5------3-5--3--3-5--|
D:-----0-0---0-0-----0-0---0-0-----0-0---0-0--3-5--3--3-5--|

e:-----------------------------------------------------------|
B:-----------------------------------------------------------|
G:-----------------------------------------------------------|
D:-7-7-----7-----7-7-----7-----7-7-----7---------------------|
A:-5-5-----5-----5-5-----5-----5-5-----5------3-5-6--5--3h5--|
D:-----0-0---0-0-----0-0---0-0-----0-0---0-0--3-5-6--5--3h5--|

e:------------------------------------------------------|
B:--------------------------------------------6-5-------|
G:--------------------------------------------5-5-------|
D:-7-7-----7-----7-7-----7-----7-7-----7----------------|
A:-5-5-----5-----5-5-----5-----5-5-----5-----------5--3-|
D:-----0-0---0-0-----0-0---0-0-----0-0---0-0-------5--3-|

e:-----------------------------------------------------------|
B:-----------------------------------------------------------|
G:-----------------------------------------------------------|
D:-7-7-----7-----7-7-----7-----7-7-----7---------------------|
A:-5-5-----5-----5-5-----5-----5-5-----5------3-5-6--5--3h5--|
D:-----0-0---0-0-----0-0---0-0-----0-0---0-0--3-5-6--5--3h5--|



e:------------------------------------------------------|
B:--------------------------------------------6-5--6-6--|
G:-7-7-----7-----7-7-----7-----7-7-----7------5-5--5-5--|
D:-5-5-----5-----5-5-----5-----5-5-----5----------------|
A:-----0-0---0-0-----0-0---0-0-----0-0---0-0------------|
D:------------------------------------------------------|

e:--------------------------------------------------------|
B:-----------------------6-5-------------------------6-6--|
G:-----------------------5-5-------------------------5-5--|
D:-7-7-----7-----7-7-----------7-7-----7-----7-7----------|
A:-5-5-----5-----5-5-----------5-5-----5-----5-5----------|
D:-----0-0---0-0-----0-0---0-0-----0-0---0-0-----0-0------|

e:-------------------------------------------------|
B:--------------------------------------------6-5--|
G:-7-7-----7-----7-7-----7-----7-7-----7------5-5--|
D:-5-5-----5-----5-5-----5-----5-5-----5-----------|
A:-----0-0---0-0-----0-0---0-0-----0-0---0-0-------|
D:-------------------------------------------------|


e:-----------------------------------|
B:-----------------------------------|
G:-----------------------------------|
D:-3-----5---------------------------|
A:-1-----3----5--3--0-----3--0-------|
D:---------------------6--------6-3--|


e:-------------------------------------------------------------------|
B:-------------------------------------------------------------------|
G:-------------------------------------------------------------------|
D:-------------------------------------------------------------------|
A:-0-----------------3-0-------3-5--3-----------------3-0------------|
D:-0--0-0-0-0-0-0-0--3-0--0-0--3-5--3--0-0-0-0-0-0-0--3-0--0-0-0-0-0-|

e:---------------------------------------------------------------------------|
B:---------------------------------------------------------------------------|
G:---------------------------------------------------------------------------|
D:---------------------------------------------------------------------------|
A:-0-----------------3-0-------3-5--3-----------------5--3--0-----3--0-------|
D:-0--0-0-0-0-0-0-0--3-0--0-0--3-5--3--0-0-0-0-0-0-0-----------6--------6--3-|

e:-------------------------------------------------------------------|
B:-------------------------------------------------------------------|
G:-------------------------------------------------------------------|
D:-------------------------------------------------------------------|
A:-0-----------------3-0-------3-5--3-----------------3-0------------|
D:-0--0-0-0-0-0-0-0--3-0--0-0--3-5--3--0-0-0-0-0-0-0--3-0--0-0-0-0-0-|

e:---------------------------------------------------------------------------|
B:---------------------------------------------------------------------------|
G:---------------------------------------------------------------------------|
D:---------------------------------------------------------------------------|
A:-0-----------------3-0-------3-5--3-----------------5--3--0-----3--0-------|
D:-0--0-0-0-0-0-0-0--3-0--0-0--3-5--3--0-0-0-0-0-0-0-----------6--------6--3-|


:-------------------------------------------------------------------------|
:-------------------------------------------------------------------------|
:-------------------------------------------------------------------------|
:-2-----5-----2----5-4--2----5-4--2-----4---7--6---4---7--6----4---5---7--|
:-0-----3-----0----3-2--0----3-2--0-----2---5--4---2---5--4----2---3---5--|
:-------------------------------------------------------------------------|


solo 3
e:-18B~~~~---------------------------------------------------------------------------------|
B:-----------------------------------------------------------------------------------------|
G:-----------15B----------9ah--------------------------------------------------------------|
D:------------------7-8-9-----9--8h9p8h9p8h9p8~~~--------------------------------7----7-9-7|
A:----------------------------------------------------------7-8-10-8-7----7-8-10----9------|
D:-------------------------------------------------9-10-12-------------10------------------|

:-----------------------------------------------------------------------------------------|
:-----------------------------------------------------------------------------------------|
:----7---7--9-7-9/12--9-12-9-12-9----9-12-9-12-9-----9-12-9-12-9-----9-12-9-12-9-----9-12-|
:-9----9--------------------------12-------------12---------------12--------------12------|
:-----------------------------------------------------------------------------------------|
:-----------------------------------------------------------------------------------------|

e:----------------15B---15-14-12----12--------------------------------------|
B:-------------------------------15----15-14-12-----12----------------------|
G:-/15-14-12-14~~--------------------------------14----14-12-14p12----12~~~-|
D:-----------------------------------------------------------------14-------|
A:--------------------------------------------------------------------------|
D:--------------------------------------------------------------------------|

:------------------------------------------------------------------------------------------|
:------------------------------------------------------------------------------------------|
:16-16-16-16-16--16-19-16-19-16----16-19-16-19-16----16-19-16-19-16----16-19-16----16-19-16|
:-------------------------------19----------------19----------------19----------19---------|
:------------------------------------------------------------------------------------------|
:------------------------------------------------------------------------------------------|

e:-----------------------------------------------------------------------------------------|
B:------------16-17-19-17-16---------------------------------------------------------------|
G:---16-17-19----------------19-16-17-19-17-16---------------------------------------------|
D:19-------------------------------------------19-16-17-19-17-16---------------------------|
A:---------------------------------------------------------------18-15-16-18-16-15---------|
D:---------------------------------------------------------------------------------20-18-17|

e:---------------------------------------------------------|
B:---------6---8--6--------6-----------6--8-6--------6~~~~-|
G:-7~~~--9----------9~~~~----9-7~~~~-9--------9--7-9-------|
D:---------------------------------------------------------|
A:---------------------------------------------------------|
D:---------------------------------------------------------|

e:-----------------------------------------------------------------------------------------|
B:---------6---8--6--------6-----------6--8-6--------6~~~~--8-6-8--10-8-10--11-10-11/18~~~-|
G:-7~~~--9----------9~~~~----9-7~~~~-9--------9--7-9---------------------------------------|
D:-----------------------------------------------------------------------------------------|
A:-----------------------------------------------------------------------------------------|
D:-----------------------------------------------------------------------------------------|


e:---------------------------------------------------------|
B:---------------------------------------------------------|
G:---------------------------------------------------------|
D:-7-7-----7-----7-7-----7-----7-7-----7-------------------|
A:-5-5-----5-----5-5-----5-----5-5-----5------3-5--3--5----|
D:-----0-0---0-0-----0-0---0-0-----0-0---0-0--3-5--3--5----|

e:-----------------------------------------------------------|
B:-----------------------------------------------------------|
G:-----------------------------------------------------------|
D:-7-7-----7-----7-7-----7-----7-7-----7---------------------|
A:-5-5-----5-----5-5-----5-----5-5-----5------3-5-6--5--3h5--|
D:-----0-0---0-0-----0-0---0-0-----0-0---0-0--3-5-6--5--3h5--|


verse
e:---------------------------------------------------------|
B:---------------------------------------------------------|
G:---------------------------------------------------------|
D:-7-7-----7-----7-7-----7-----7-7-----7-------------------|
A:-5-5-----5-----5-5-----5-----5-5-----5------3-5--3--3-5--|
D:-----0-0---0-0-----0-0---0-0-----0-0---0-0--3-5--3--3-5--|

e:-----------------------------------------------------------|
B:-----------------------------------------------------------|
G:-----------------------------------------------------------|
D:-7-7-----7-----7-7-----7-----7-7-----7---------------------|
A:-5-5-----5-----5-5-----5-----5-5-----5------3-5-6--5--3h5--|
D:-----0-0---0-0-----0-0---0-0-----0-0---0-0--3-5-6--5--3h5--|

e:------------------------------------------------------|
B:--------------------------------------------6-5-------|
G:--------------------------------------------5-5-------|
D:-7-7-----7-----7-7-----7-----7-7-----7----------------|
A:-5-5-----5-----5-5-----5-----5-5-----5-----------5--3-|
D:-----0-0---0-0-----0-0---0-0-----0-0---0-0-------5--3-|

e:-----------------------------------------------------------|
B:-----------------------------------------------------------|
G:-----------------------------------------------------------|
D:-7-7-----7-----7-7-----7-----7-7-----7---------------------|
A:-5-5-----5-----5-5-----5-----5-5-----5------3-5-6--5--3h5--|
D:-----0-0---0-0-----0-0---0-0-----0-0---0-0--3-5-6--5--3h5--|



e:------------------------------------------------------|
B:--------------------------------------------6-5--6-6--|
G:-7-7-----7-----7-7-----7-----7-7-----7------5-5--5-5--|
D:-5-5-----5-----5-5-----5-----5-5-----5----------------|
A:-----0-0---0-0-----0-0---0-0-----0-0---0-0------------|
D:------------------------------------------------------|

e:--------------------------------------------------------|
B:-----------------------6-5-------------------------6-6--|
G:-----------------------5-5-------------------------5-5--|
D:-7-7-----7-----7-7-----------7-7-----7-----7-7----------|
A:-5-5-----5-----5-5-----------5-5-----5-----5-5----------|
D:-----0-0---0-0-----0-0---0-0-----0-0---0-0-----0-0------|

e:-------------------------------------------------|
B:--------------------------------------------6-5--|
G:-7-7-----7-----7-7-----7-----7-7-----7------5-5--|
D:-5-5-----5-----5-5-----5-----5-5-----5-----------|
A:-----0-0---0-0-----0-0---0-0-----0-0---0-0-------|
D:-------------------------------------------------|


e:-----------------------------------|
B:-----------------------------------|
G:-----------------------------------|
D:-3-----5---------------------------|
A:-1-----3----5--3--0-----3--0-------|
D:---------------------6--------6-3--|

e:-------------------------------------------------------------------|
B:-------------------------------------------------------------------|
G:-------------------------------------------------------------------|
D:-------------------------------------------------------------------|
A:-0-----------------3-0-------3-5--3-----------------3-0------------|
D:-0--0-0-0-0-0-0-0--3-0--0-0--3-5--3--0-0-0-0-0-0-0--3-0--0-0-0-0-0-|

e:---------------------------------------------------------------------------|
B:---------------------------------------------------------------------------|
G:---------------------------------------------------------------------------|
D:---------------------------------------------------------------------------|
A:-0-----------------3-0-------3-5--3-----------------5--3--0-----3--0-------|
D:-0--0-0-0-0-0-0-0--3-0--0-0--3-5--3--0-0-0-0-0-0-0-----------6--------6--3-|

e:-------------------------------------------------------------------|
B:-------------------------------------------------------------------|
G:-------------------------------------------------------------------|
D:-------------------------------------------------------------------|
A:-0-----------------3-0-------3-5--3-----------------3-0------------|
D:-0--0-0-0-0-0-0-0--3-0--0-0--3-5--3--0-0-0-0-0-0-0--3-0--0-0-0-0-0-|

e:------------------------------------------------------------------------------|
B:------------------------------------------------------------------------------|
G:------------------------------------------------------------------------------|
D:------------------------------------------------------------------------------|
A:-0-----------------3-0-------3-5--3-----------------5--3--0-----3--0--------0-|
D:-0--0-0-0-0-0-0-0--3-0--0-0--3-5--3--0-0-0-0-0-0-0-----------6--------6--3--0-|





Comments


Popular Halford tabs & chords
Light Of The World Chords
Till The Day I Die Chords
Prisoner Of Your Eyes Tabs
Resurection Tabs
Resurrection Tabs
Saviour Tabs
The One You Love To Hate Tabs
Wrath Of God 1 Tabs
Nailed To The Gun Ukulele
Till The Day I Die Ukulele


Song lyrics



↑ Back to top | Tablatures and chords are parodies/interpretations of the original songs. You may use it for private study, scholarship, research or language learning purposes only
© 2014 AZChords.com Contact us | Privacy policy | DMCA | Add/correct tabs | Request tabs | Top 50 tabs