>
 >
Innocence

Innocence Guitar Tabs

Halestorm - Innocence chords, tabs, tablatures, lyrics

Guitar lessons | Add/correct | Request | Top 50 tabs Artists:  A B C D E F G H I J K L M N O P Q R S T U V W X Y Z 0-9

Innocence Guitar Tabs – Halestorm

CD, Sheet music, Poster

Do you like Innocence? Share with your friends now
ChordsChords v2TabsUkulele
Tuning: Drop Db

Key:

| /  slide up
| \  slide down
| h  hammer-on
| p  pull-off
| ~  sustained note
| x  Mute note


Song order:

Intro
Verse
Pre-Chorus
Chorus
Interlude
Verse
Pre-Chorus
Chorus
Bridge
Climactic Chorus
Chorus
Outro


Intro

Joe

eb|---------------------|        
Bb|---------------------|        
Gb|----11---9-7---12----| X 9  
Db|--9----9-----9-------|
Ab|7--------------------|
Db|---------------------|


Lzzy - Comes in on Joe's 3rd time through his riff.

eb|-------------------------------------------------------|
Bb|-------------------------------------------------------|
Gb|-------------------------------------------------------|
Db|2-2-2-X-2--2--2-2-X-2-2/10-10-10-X-10--10--10-10-X-12\-|
Ab|2-2-2-X-2--2--2-2-X-2-2/10-10-10-X-10--10--10-10-X-12\-|
Db|2-2-2-X-2--2--2-2-X-2-2/10-10-10-X-10--10--10-10-X-12\-|

eb|-------------------------------------------|
Bb|-------------------------------------------|
Gb|-------------------------------------------|
Db|2-2-2-X-2--2--2-2-X-2-2/10-10-10-X-10--10\-|
Ab|2-2-2-X-2--2--2-2-X-2-2/10-10-10-X-10--10\-|
Db|2-2-2-X-2--2--2-2-X-2-2/10-10-10-X-10--10\-|


Verse

Joe 

eb|-------------------------------------------------------------------|
Bb|-------------------------------------------------------------------|
Gb|----11---9-7---12----11---9-7---12---12--12--12-12-X-12--12--12-12-|  X3
Db|--9----9-----9-12--9----9-----9-12---12--12--12-12-X-12--12--12-12-|
Ab|7------------------------------------------------------------------|
Db|-------------------------------------------------------------------|
   . . .  . . . .     . .  . . . .  

Lzzy

eb|-----------------------------------------------|     |----|
Bb|-----------------------------------------------|     |----|
Gb|-----------------------------------------------|     |----|
Db|2-2------2-2------------------10-10------10-10-| X3  |10\-| Play this at the end
Ab|2-2------2-2------------------10-10------10-10-|     |10\-| of the third time through.
Db|2-2------2-2------------------10-10------10-10-|     |10\-|
   . .      . .                  .  .       .  .
 

Pre-Chorus

Joe

eb|---------------------------|
Bb|---------------------------|
Gb|---9------12-----9---------|
Db|7--7---10-10--7--7-10---12-|
Ab|7------10-----7----10---12-|
Db|7------10-----7----10---12-|


Lzzy

eb|---------------------------|
Bb|---------------------------|
Gb|---------------------------|
Db|7~----10~----7~----10---12-|
Ab|7~----10~----7~----10---12-|
Db|7~----10~----7~----10---12-|


Chorus

Joe - Listen to the song to figure out a comfortable strumming pattern. I've included the
      notes for this section, but for the sake of space I left out the strumming for most of it.

eb|------------------------------------------------------------------------------------------|
Bb|------------------------------------------------------------------------------------------|
Gb|16-16-16-16-16/17-17\14-14-14-14-14-14-14-16-16-16-16-16/17-17\14-14-14-16-16-14h16p14\12-|
Db|------------------------------------------------------------------------------------------|
Ab|14-14-14-14-14/15-15\12-12-12-12-12-12-12-15-15-14-14-14/15-15\12-12-12-------------------|
Db|------------------------------------------------------------------------------------------|

eb|---------------------------------------------------------------------------------------------|
Bb|---------------------------------------------------------------------------------------------|
Gb|16-16-16-16-16/17-17\-14-14-14-14-14/16-16\12-1212-12-1212-12-1212-12/16-X-14-1414-X-14-1414-|
Db|---------------------------------------------------------------------------------------------|
Ab|14-14-14-14-14/16-16\-12-12-12-12-12/14-14\10-1010-10-1010-10-1010-10/14-X-12-1212-X-12-1212-|
Db|---------------------------------------------------------------------------------------------|


Lzzy

eb|-------------------------------------------------------------|
Bb|-------------------------------------------------------------|
Gb|---------------2-2-2-2-2222----------------2-2-2-4-4-2h4p2p0-|
Db|2-2-X-5-5-5555-2-2-2-2-2222-2-2-X-5-5-5555-2-2-2-------------|
Ab|2-2-X-5-5-5555-0-0-0-0-0000-2-2-X-5-5-5555-0-0-0-------------|
Db|2-2-X-5-5-5555--------------2-2-X-5-5-5555-------------------|


eb|---------------------------------------------------------------------------------|
Bb|---------------------------------------------------------------------------------|
Gb|---------------2-2-X-------------------------------------------------------------|
Db|2-2-X-5-5-5555-0-0-X-4-4-4444-10-1010-10-1010-10-1010-10-1010-X-12-1212-X-12-1212|
Ab|2-2-X-5-5-5555-0-0-X-4-4-4444-10-1010-10-1010-10-1010-10-1010-X-12-1212-X-12-1212|
Db|2-2-X-5-5-5555-------4-4-4444-10-1010-10-1010-10-1010-10-1010-X-12-1212-X-12-1212|



Interlude

Joe

eb|---------------------|        
Bb|---------------------|        
Gb|----11---9-7---12----| X3  
Db|--9----9-----9-------|
Ab|7--------------------|
Db|---------------------|


Lzzy

eb|-------------------------------------------|
Bb|-------------------------------------------|
Gb|-------------------------------------------|
Db|2-2-2-X-2--2--2-2-X-2-2/10-10-10-X-10--10\-|
Ab|2-2-2-X-2--2--2-2-X-2-2/10-10-10-X-10--10\-|
Db|2-2-2-X-2--2--2-2-X-2-2/10-10-10-X-10--10\-|


Bridge

Joe - The second bit of Joe's bridge part is in time with
      Lzzy's strumming.

eb|---------7h8p7------|  |15-X-15--15-15-15-15-|
Bb|----10---------10---|  |15-X-15--15-15-15-15-|
Gb|--9----9----------9-|x6|14-X-14--14-14-14-14-|
Db|7-------------------|  |---------------------|
Ab|--------------------|  |---------------------|
Db|--------------------|  |---------------------|
   . . .  .       .  .

Lzzy

eb|-----------------------------------------|
Bb|-----------------------------------------|
Gb|-----------------------------------------|
Db|-----------------------------------------|
Ab|7~--9~--10~--X-12-1212-X-12--12-12-12-12-|
Db|7~--9~--10~--X-12-1212-X-12--12-12-12-12-|



Climactic Chorus

Joes

eb|---------------------------------------------------------------------------------|
Bb|---------------------------------------------------------------------------------|
Gb|2-2------------14-14-14-14-14-14-16-16-16-16-16/17-17\14-14-14-16-16-14h16p14\12-|
Db|---------------------------------------------------------------------------------|
Ab|2-2------------12-12-12-12-12-12-14-14-14-14-14/15-15\12-12-12-------------------|
Db|2-2------------------------------------------------------------------------------|

eb|---------------------------------------------------------------------------------------------|
Bb|-------------------------------------------------------------------------------------15-1515-|
Gb|16-16-16-16-16/17-17\-14-14-14-14-14/16-16\12-1212-12-1212-12-1212-12/16-X-14-1414-X-14-1414-|
Db|---------------------------------------------------------------------------------------------|
Ab|14-14-14-14-14/16-16\-12-12-12-12-12/14-14\10-1010-10-1010-10-1010-10/14-X-12-1212-X-12-1212-|
Db|---------------------------------------------------------------------------------------------|


Lzzy

eb|-------------------------------------------------------------|
Bb|-------------------------------------------------------------|
Gb|---------------2-2-2-2-2222----------------2-2-2-4-4-2h4p2p0-|
Db|2-2------------2-2-2-2-2222-2-2-X-5-5-5555-2-2-2-------------|
Ab|2-2------------0-0-0-0-0000-2-2-X-5-5-5555-0-0-0-------------|
Db|2-2-------------------------2-2-X-5-5-5555-------------------|


eb|---------------------------------------------------------------------------------|
Bb|---------------------------------------------------------------------------------|
Gb|---------------2-2-X-------------------------------------------------------------|
Db|2-2-X-5-5-5555-0-0-X-4-4-4444-10-1010-10-1010-10-1010-10-1010-X-12-1212-X-12-1212|
Ab|2-2-X-5-5-5555-0-0-X-4-4-4444-10-1010-10-1010-10-1010-10-1010-X-12-1212-X-12-1212|
Db|2-2-X-5-5-5555-------4-4-4444-10-1010-10-1010-10-1010-10-1010-X-12-1212-X-12-1212|


Outro

Joe

eb|------------------------------------------15-1515-------------------------------15-15-15-15-15\|
Bb|------------------------------------------15-1515-------------------------------15-15-15-15-15\|
Gb|12-1212-12-1212-12-1212-12/16-X-14-1414-X-14-1414-12-1212-12-1212-12-1212-12/16-14-14-14-14-14\|
Db|-----------------------------------------------------------------------------------------------|
Ab|10-1010-10-1010-10-1010-10/14-X-12-1212-X---------10-1010-10-1010-10-1010-10/14----------------|
Db|-----------------------------------------------------------------------------------------------|


Lzzy

eb|----------------------------------------------------|
Bb|----------------------------------------------------|
Gb|----------------------------------------------------|
Db|10-1010-10-1010-10-1010-10-1010-X-12-1212-X-12-1212-|
Ab|10-1010-10-1010-10-1010-10-1010-X-12-1212-X-12-1212-|
Db|10-1010-10-1010-10-1010-10-1010-X-12-1212-X-12-1212-|

eb|-------------------------------------------------|
Bb|-------------------------------------------------|
Gb|-------------------------------------------------|
Db|10-1010-10-1010-10-1010-10-1010-X-12-12-12-12-12-|
Ab|10-1010-10-1010-10-1010-10-1010-X-12-12-12-12-12-|
Db|10-1010-10-1010-10-1010-10-1010-X-12-12-12-12-12-|





Comments


Popular Halestorm tabs & chords
I Get Off Bass Tabs
Hate It When You See Me Cry Chords
Heres To Us Chords
Heres To Us 1 Chords
Conversation Over Tabs
It's Not You Tabs
Rock Show Tabs
What Were You Expecting? Tabs
Bad Romance Ukulele
Break In Ukulele


Song lyrics



↑ Back to top | Tablatures and chords are parodies/interpretations of the original songs. You may use it for private study, scholarship, research or language learning purposes only
© 2014 AZChords.com Contact us | Privacy policy | DMCA | Add/correct tabs | Request tabs | Top 50 tabs