» » »

Hakan Hellstrom, Kann Ingen Sorg For Mig Goteborg Chords (ver.1)

Artists:  A B C D E F G H I J K L M N O P Q R S T U V W X Y Z # 

Kann Ingen Sorg For Mig Goteborg Chords (ver.1)

Hakan Hellstrom Tabs
 Rating:
4.2/5 (5 votes)
Kann Ingen Sorg For Mig Goteborg lessons Tabs too difficult? Try these video lessons and learn fast
1
                C/B: x20010 
F:   xx3211
F/E: xx2211



|C  C/B |Am G  |F  F/E |Dm  G  |
|C  C/B |Am G  |F  F/E |Dm  G  |

Sologitarr:

 C      C/B        Am    G            F       F/E          Dm      G
|-------8h10-8---|------------------|--------------------|-----------------|
|-8---8--------8-|-------10h12-10---|---------8h10---8---|-----------------|
|----------------|-9---9----------9-|--------------------|-----7---9--10---|
|----------------|------------------|-10---10------------|-10--------------|
|----------------|------------------|--------------------|-----------------|
|----------------|------------------|--------------------|-----------------|

 C      C/B        Am    G            F       F/E          Dm      G   
|-------8h10-8---|------------------|--------------------|-----------------|
|-8---8--------8-|-------10h12-10---|---------8h10---8---|-------------8---|
|----------------|-9---9----------9-|--------------------|-----7---9-------|
|----------------|------------------|-10---10------------|-10--------------|
|----------------|------------------|--------------------|-----------------|
|----------------|------------------|--------------------|-----------------|

(versen börjar...)
|----------------|
|----------------|
|----------------|
|-10-------------|
|----------------|
|----------------|


C                        F
  Ge mig arsenik, pa-pa-pa
                                     C
  För stan är full av tanter och tragik
           C/B        Am           G             F
  Pulver hjälpte mig verkligen, skriv det här i tidningen
               G                C   C/B   Am
  För jag var nere men uppe på fem
  G     F   G
  A- A- A
  
  
C                               F
  Lillebror (lillebror), pa-pa-pa
                                 C
  Bli inte som jag när du blir stor
             C/B        Am            G                 F
  Du stod i dörren och sa: Är det här allt det blir så dör jag!
         G                  C   C/B   Am
  Lillebror bli aldrig som jag!
  G     F   G
  A- A- A


C      C/B    Am       G       F
  Känn ingen sorg för mig Göteborg
           G         C        C/B    Am             G   F
  Och Singoalla tror att, om himlen finns är jag förlorad
                  G                C
  men känn ingen sorg för mig Göteborg


    C/B|Am G  |F     |G     |
|C  C/B|Am G  |F     |G     |


C                     F         
  På diskotek, pa-pa-pa
                                             C
  Men jag tar allting på lek, även en hemlighet
               C/B  Am             G
  Ta mig till kärlek, ta mig till dans
F                 G             C   C/B   Am
  Ge mig nåt som tar mig någonstans
  G     F
  A- A- A
                G              C
  för jag vill veta om kärlek finns

       C/B    Am       G       F
  Känn ingen sorg för mig Göteborg
           G         C        C/B    Am             G   F
  Och Singoalla tror att, om himlen finns är jag förlorad
                  G                C   C/B   Am
  men känn ingen sorg för mig Göteborg
  G     F              G                C
  M- m- m, känn ingen sorg för mig Göteborg


    C/B|Am G  |F     |G     |


Am                 
  Det var en kväll
C              Am
  på ett diskotek
                        G           F
  Och jag följde varje hennes danssteg
                 G                  F
  Och vi kanske ses, det finns en chans
              G                  F
  (Vi kanske ses, det finns en chans)
           G           C
  på nån spårvagn nånstans

    C/B|Am G  |F     |G     |

    C   C/B  Am    G    F      G
  Cha! Cha! Cha! Cha! Cha! Ey!
 
     D   D/C#   Bm
  A- A,
  A     G   A
  A- A- A

|D D/C#|Bm A|G     |A     |

C      C/B    Am       G       F
  Känn ingen sorg för mig Göteborg
          G         C       G/D    C/E            G   F/A
  Jag vet alla tror att om himlen finns är jag förlorad
                  G/B              C
  Men känn ingen sorg för mig Göteborg
            
Submit corrections

comments powered by Disqus
↑ Back to top | Hakan Hellstrom Chords for Kann Ingen Sorg For Mig Goteborg. Lyrics for acoustic guitar and electric guitar. 1 Tablatures and chords are parodies/interpretations of the original songs. You may use it for private study, scholarship, research or language learning purposes only